Oops, an error
Loading. Please wait.

Mystify Tab

996 views 1 this week
no commentswrite comment
1 2 3 4 5
2 more votes to show rating
add to favorites
launch autoscroll
font size
0
reset
how to read this tab
guitar tuner
Autoscroll
slow
fast
+/-
esc
set tempo
stop
Help us to improve Ultimate-Guitar.com Take our survey!
×
Author
Gtr tuned to D, with a droppped C

h - hammer on
p - pull off
b - bend string up
r - release bend
/ - slide up
\ - slide down
v - vibrato (sometimes written as ~)
t - right hand tap
x - play 'note' with heavy damping

Intro:
  X X    X X    X X      X X
D----------------------------------------------------------------------------|
A----------------------------------------------------------------------------|
F-----6------7------6-6------------------------------------------------------|
C----------------------------------------------------------------------------|
G-----------------------------9-9--------------------------------------------|
C-9-9----9-9----9-9------9-9-------------------------------------------------|

Wah Gtr:
  v
D----------------------------------------------------------------------------|
A-------------B--------------------------------------------------------------|
F-11----------9(11)(9)-------------------------------------------------------|
C----12-9-------------9------------------------------------------------------|
G----------7-----------------------------------------------------------------|
C----------------------------------------------------------------------------|

Chorus Chords:
   A    C    G    F  E
D----------------------------------------------------------------------------|
A----------------------------------------------------------------------------|
F--4---------2---------------------------------------------------------------|
C--4----0----2----5--4-------------------------------------------------------|
G--2----5----0----5--4-------------------------------------------------------|
C-------0---------5--4-------------------------------------------------------|

Bridge Riff:
                                               D   C
D----------------------------------------------------------------------------|
A--12-11------12-11-----12-11------------------------------------------------|
F--------11---------11--------11---------------------------------------------|
C----------------------------------12--9-8-----2---0-------------------------|
G----------------------------------------------2---0-------------------------|
C----------------------------------------------2---0-------------------------|

Interlude:
    h       h
D----------------------------------------------------------------------------|
A----------------------------------------------------------------------------|
F--2-4---2-2-4----6---7--6---------------------------------------------------|
C----------------------------------------------------------------------------|
G----------------------------------------------------------------------------|
C----------------------------------------------------------------------------|

Interlude Arpeggio:
   A                  C                G               F        E
D--------------------------------------------------------------------------|
A--------------------------------------------------------------------------|
F------4-----4----------------------------2-----2--------------------------|
C----4-----4-----4------0-----0---------2-----2-----2------5-------4-------|
G--2-----2-----2-------2-----2-----2---0-----0-----0------5-------5---5----|
C---------------------0-----0-----0----------------------5-----5-4---------|

Song Layout:

Intro x 2
Wah Gtr x 4 (rythym gtr plays chorus)
Verse (No gtrs)
Bridge riff x 1
Chorus x 2
Wah Gtr x 4 (no rythym guitar)
Verse (No Gtrs)
Bridge riff x 1
Chorus x 2
Interlude x 2
Interlude Arpeggio x 2
Chorus x 2
Chorus x 2 (with Wah Gtr x 8)
Suggest correction
Give kudos to tab author, rate the tab!
1 2 3 4 5
comments
print report bad tab
guest
You may want to rate the tab now too:
select rating
Wanna post a correction for this tab? Suggest correction