Oops, an error
Loading. Please wait.

Say Just Words chords

version 1
version 1

Whole song

Interactive

409 views 12 this week
3 commentsread comments
1 2 3 4 5
1 last vote to show rating
add to favorites
×
Save as Personal and add changes to this tab that will be seen only by you. Learn more ›
×
You can save this tab as Personal to edit and correct it or add notes. All changes will be seen only by you. Learn more »
launch autoscroll
font size
0
reset
transpose
0
reset
display chords
guitar tuner
backing track
0:00
0:00
edit
Autoscroll
slow
fast
+/-
esc
set tempo
stop
Author
Difficulty
Strumming
There is no strumming pattern for this song yet. and get +5 IQ
This is the closest I can get. Something's definitely missing but it's good enough for me...

Capo at 3 

Intro]
|------------------|------------------|
|----------0-1-----|----------0-1-----|
|-----2------------|-----2------------|
|---2---2----------|---2---2-------3--|
|------------------|------------------|
|------------------|------------------|  x2

|------------------|------------------|
|----------0-1-----|--0-------0-1-----|
|-----2------------|-----2------------|
|---2---2----------|-------2-------3--|
|------------------|------------------|
|------------------|------------------|  x2

|------------------|------------------|
|----------0-1-----|----------0-1-----|
|-----2------------|-----2------------|
|---2---2----------|---2---2-------3--|
|------------------|------------------|
|------------------|------------------| 

|------------------|------------------|
|----------0-1-----|--0-------0-1-----|
|-----2------------|-----2------------|
|---2---2----------|-------2-------3--|
|------------------|------------------|
|------------------|------------------|

[Verse]
Am         Em F             G            
You get high, with your destructive instinct
Am         Em F             G
You get high, with your corrosive instinct
Am          Em  F              G
Where can I go, to escape your foul mind tricks
       Am          Em F              G
You're trying it more, but you will never break me
Am               Em                       F                              
Cause you presume, the winner is you but that's not true,
     G              Am          
So say just words to me, ...

[Chorus]
   Em                F
unreal what your hate's providing,
 G                Am       Em              F  
Say just words to me, your talk is always contradiction
 G                Am             Em                    F
Say just words to me, you won't feel the warmth of friends around you
 G                Am         Em                 F
Say just words to me, is it true that there is worth inside
G                    Am
So say just words to me

[Verse]
         Em  F                    G                
Your desires, all the worse from power craving
Am       Em  F                     G             
Your desires, only where there's fire burning,
Am                 Em F                   G 
I'll show you the way a pleasure that's for the talking,
Am                Em F                  G   
You're trying it more but you won't get satisfaction
Am              Em                       F
Cause you presume the winner is you but that's not true...
   G                 Am
So say just words to me ...

[Chorus]
   Em                F
unreal what your hate's providing,
 G                Am       Em              F  
Say just words to me, your talk is always contradiction
 G                Am             Em                    F
Say just words to me, you won't feel the warmth of friends around you
 G                Am         Em                 F
Say just words to me, is it true that there is worth inside
G                    Am
So say just words to me

[Solo]
...pause or Am maybe...

|------------------|------------------|
|----------0-1-----|----------0-1-----|
|-----2------------|-----2------------|
|---2---2----------|---2---2-------3--|
|------------------|------------------|
|------------------|------------------|  x2

Am   E   Am   G

[Chorus]
   Em                F
unreal what your hate's providing,
 G                Am       Em              F  
Say just words to me, your talk is always contradiction
 G                Am             Em                    F
Say just words to me, you won't feel the warmth of friends around you
 G                Am         Em                 F
Say just words to me, is it true that there is worth inside
G                    Am
So say just words to me


            
            
Suggest correction
Creating personal tab
Creating personal tab
You can edit any tab online and save it as your Personal.

You can edit, replace or remove any tab part or add personal notes – all changes will be seen only by you.

Personal tabs can be accessed anytime from any device, even offline.
Learn more »
Give kudos to tab author, rate the tab!
1 2 3 4 5
comments
print report bad tab
3 comments total.
0 reply
Blodslegga 10 Jan 11, 2016 07:46 AM

YO ROCKERS!!! The best tab ever!!!!!

0 reply
tffields 10 Jun 08, 2016 02:03 PM

Hi there, I believe the chords are as follows:

tune down one step DGCFAD

intro: Dm/F/C/A#/
Dm/F/C/G-A#
verse: Dm/Dm/Dm/A#-C (4x)
pre-chorus: A/A/A/A
chorus: D/F/C/A# (3x)
D/F/C/G-A#

(the slashes represent measures)

0 reply
tffields 10 Jun 08, 2016 02:08 PM

hi there i believe the chords go like this:

tune down one step DGCFAD

intro: Dm/F/C/A#/
Dm/F/C/G-A#

verse: Dm/Dm/Dm/A#-C (4x) (You get high, with your destructive instinct...)

pre-chorus: A/A/A/A (Cause you presume,the winner is you but that's not true)

chorus D/F/C/A# (3x) (unreal what your hate's providing,Say just words to me)
D/F/C/G-A#

the slashes represent measures

guest
You may want to rate the tab now too:
select rating
Wanna post a correction for this tab? Suggest correction