Oops, an error
Loading. Please wait.

Theories From Another World tab

863 views 6 this week
1 commentread comment
1 2 3 4 5
1 last vote to show rating
add to favorites
×
Save as Personal and add changes to this tab that will be seen only by you. Learn more ›
×
You can save this tab as Personal to edit and correct it or add notes. All changes will be seen only by you. Learn more »
launch autoscroll
font size
0
reset
how to read this tab
guitar tuner
edit
Autoscroll
slow
fast
+/-
esc
set tempo
stop
Author
Paradise Lost
Tragic Idol
Theories From Another World

7-string tuned down one full step (ADGCFAD)

===================================================

Intro
Lead
*tremolo pick the open D string throughout 
D |---------------------------------|-------------------------------------|
A |---------------------------------|-------------------------------------|
F |---------------------------------|-------------------------------------|
C |---------------------------------|-------------------------------------|
G |---------------------------------|-------------------------------------|
D |-0*-14-15---0*-11-12---0*-8-8/11-|-0*-14-15---0*-11-12---0*-15-14-x-12-|
A |---------------------------------|-------------------------------------|
Rhythm
D |---------------------------------|-------------------------------------|
A |---------------------------------|-------------------------------------|
F |---------------------------------|-------------------------------------|
C |---------------------------------|-------------------------------------|
G |---------------------------------|---------------------------------222-|
D |---------------------------------|---------------------------------000-|
A |---------------------------------|-------------------------------------|
                                                                     PM**
Lead
D |---------------------------------|--------------------------|
A |---------------------------------|--------------------------|
F |---------------------------------|--------------------------|
C |---------------------------------|--------------------------|
G |---------------------------------|---------------------333--|
D |-0*-14-15---0*-11-12---0*-8-8/11-|-0*-14-15---0*-11-12-111--|
A |---------------------------------|--------------------------|
Rhythm
D |---------------------------------|--------------------------|
A |---------------------------------|--------------------------|
F |---------------------------------|--------------------------|
C |---------------------------------|--------------------------|
G |-------------------------666-555-|--------------------------|
D |-------------------------444-333-|---------------------888--|
A |---------------------------------|---------------------666--|
                            PM*****                       PM*

Lead and Rhythm together
D |---------------------------------|-------------------------------------|
A |---------------------------------|-------------------------------------|
F |---------------------------------|-------------------------------------|
C |---------------------------------|-------------------------------------|
G |---------------------------------|-------------------------------------|
D |-0*-14-15---0*-11-12---0*-8-8/11-|-0*-14-15---0*-11-12---0*-15-14-x-12-|
A |---------------------------------|-------------------------------------|
Lead and Rhythm together part 2
D |---------------------------------|-------------------------------|
A |---------------------------------|-------------------------------|
F |---------------------------------|-------------------------------|
C |---------------------------------|-------------------------------|
G |---------------------------------|----------------------5-4-x-2--|
D |-0*-14-15---0*-11-12---0*-8-8/11-|-0*-14-15---0*-11-12--3-2-x-0--|
A |---------------------------------|-------------------------------|


Heavy Version of Intro/Pre Chorus 
Rhythm x2
D |-----------------------------|-----------------------------|
A |-----------------------------|-----------------------------|
F |-----------------------------|-----------------------------|
C |-----------------------------|-----------------------------|
G |-----4---5-------------------|-----4---5----------5-4-x-2--|
D |--00-2-0-3-00-6---7----33/6--|--00-2-0-3-00-6---7-3-2-x-0--|
A |--------------4-0-5-00-11/4--|--------------4-0-5----------|


Verse 1
Lead
D |------------------------------------------|
A |------------------------------------------|
F |------------------------------------------|
C |-----------------------------2----6--5----|
G |---------------------------------------6--|
D |-0---4--3-------0----4--3-----------------|
A |-------------4------------4---------------|
Rhythm
Last note is a pick slide
D |------------------------------------------|
A |------------------------------------------|
F |------------------------------------------|
C |------------------------------------------|
G |---------------------------------6--5-----|
D |-----------------------------7---4--3-x/--|
A |-----------------------------5--------x/--|


Pre Chorus 
Rhythm x2
D |-----------------------------|-----------------------------|
A |-----------------------------|-----------------------------|
F |-----------------------------|-----------------------------|
C |-----------------------------|-----------------------------|
G |-----4---5-------------------|-----4---5----------x/pick---|
D |--00-2-0-3-00-6---7----33/6--|--00-2-0-3-00-6---7-xslide---|
A |--------------4-0-5-00-11/4--|--------------4-0-5----------|


Chorus
Lead
*tremolo pick all notes 
D |---------------------------------------------------------------|
A |--5555555555555-------------------------------444444/5/4/7/5/9-|
F |----------------555555555555555-4444444444444------------------|
C |---------------------------------------------------------------|
G |---------------------------------------------------------------|
D |---------------------------------------------------------------|
A |---------------------------------------------------------------|
Rhythm
tremolo pick all notes 
D |---------------------------------------------------------------|
A |---------------------------------------------------------------|
F |---------------------------------------------------------------|
C |---------------------------------------------------------------|
G |---------------------------------------------------------------|
D |--0000000000000------------------------------------------------|
A |----------------111111111111111-0000000000000-444444444444444--|


Post Chorus
Lead x2
D |-14-15-----------14-15-----15-14-12-11-|-14-15-----------14-15-----15-14-12-11-|
A |------16-17-13-16-----16-17------------|------16-17-13-16-----16-17------------|
F |---------------------------------------|---------------------------------------|
C |---------------------------------------|---------------------------------------|
G |---------------------------------------|---------------------------------------|
D |---------------------------------------|---------------------------------------|
A |---------------------------------------|---------------------------------------|
Rhythm
Pick slide the last note
D |---------------------------------------|---------------------------------------|
A |---------------------------------------|---------------------------------------|
F |---------------------------------------|---------------------------------------|
C |------0----------------0----0----------|------0--0-----------------------------|
G |------7----------------3----3----------|------2--2--------6---6----------------|
D |--7---7------------3---3----3----------|--2---2--2-------(6)-(6)----xx//-------|
A |--5----------------1-------------------|--0---------------4---4-----xx//-------|


Lead and Rhythm together
D |---------------------------------|-------------------------------|
A |---------------------------------|-------------------------------|
F |---------------------------------|-------------------------------|
C |---------------------------------|-------------------------------|
G |---------------------------------|----------------------5-4-x-2--|
D |-0*-14-15---0*-11-12---0*-8-8/11-|-0*-14-15---0*-11-12--3-2-x-0--|
A |---------------------------------|-------------------------------|


Heavy Version of Intro/Pre Chorus 
Rhythm x2
D |-----------------------------|-----------------------------|
A |-----------------------------|-----------------------------|
F |-----------------------------|-----------------------------|
C |-----------------------------|-----------------------------|
G |-----4---5-------------------|-----4---5----------5-4-x-2--|
D |--00-2-0-3-00-6---7----33/6--|--00-2-0-3-00-6---7-3-2-x-0--|
A |--------------4-0-5-00-11/4--|--------------4-0-5----------|


Verse 2
Lead
D |------------------------------------------|
A |------------------------------------------|
F |------------------------------------------|
C |-----------------------------2----6--5----|
G |---------------------------------------6--|
D |-0---4--3-------0----4--3-----------------|
A |-------------4------------4---------------|
Rhythm
Last note is a pick slide
D |------------------------------------------|
A |------------------------------------------|
F |------------------------------------------|
C |------------------------------------------|
G |---------------------------------6--5-----|
D |-----------------------------7---4--3-x/--|
A |-55555555555555555555555555--5--------x/--|


Heavy Version of Intro/Pre Chorus 
Rhythm x2
D |-----------------------------|-----------------------------|
A |-----------------------------|-----------------------------|
F |-----------------------------|-----------------------------|
C |-----------------------------|-----------------------------|
G |-----4---5-------------------|-----4---5----------2-2-2-2--|
D |--00-2-0-3-00-6---7----33/6--|--00-2-0-3-00-6---7-0-0-0-0--|
A |--------------4-0-5-00-11/4--|--------------4-0-5----------|
                                                     PM*****


Chorus
Lead
*tremolo pick all notes 
D |---------------------------------------------------------------|
A |--5555555555555-------------------------------444444/5/4/7/5/9-|
F |----------------555555555555555-4444444444444------------------|
C |---------------------------------------------------------------|
G |---------------------------------------------------------------|
D |---------------------------------------------------------------|
A |---------------------------------------------------------------|
Rhythm
tremolo pick all notes 
D |---------------------------------------------------------------|
A |---------------------------------------------------------------|
F |---------------------------------------------------------------|
C |---------------------------------------------------------------|
G |---------------------------------------------------------------|
D |--0000000000000------------------------------------------------|
A |----------------111111111111111-0000000000000-444444444444444--|


Post Chorus
Lead x2
D |-14-15-----------14-15-----15-14-12-11-|-14-15-----------14-15-----15-14-12-11-|
A |------16-17-13-16-----16-17------------|------16-17-13-16-----16-17------------|
F |---------------------------------------|---------------------------------------|
C |---------------------------------------|---------------------------------------|
G |---------------------------------------|---------------------------------------|
D |---------------------------------------|---------------------------------------|
A |---------------------------------------|---------------------------------------|
Rhythm
Pick slide the last note
D |---------------------------------------|---------------------------------------|
A |---------------------------------------|---------------------------------------|
F |---------------------------------------|---------------------------------------|
C |------0----------------0----0----------|------0--0-----------------------------|
G |------7----------------3----3----------|------2--2--------6---6----------------|
D |--7---7------------3---3----3----------|--2---2--2-------(6)-(6)----xx//-------|
A |--5----------------1-------------------|--0---------------4---4-----xx//-------|


Outro - Lead 
D |---------------------------------|------------------------------|
A |---------------------------------|------------------------------|
F |-9999/11111111/12121212/11111111-|-8888/9999/11111111/12121212--|
C |-xxxx/-x-x-x-x--x-x-x-x--x-x-x-x-|-xxxx/xxxx/-x-x-x-x/-x-x-x-x--|
G |-7777/-9-9-9-9/10101010/-9-9-9-9-|-6666/7777/-9-9-9-9/10101010--|
D |---------------------------------|------------------------------|
A |---------------------------------|------------------------------|


Outro - Rhythm (played lightly underneath the Lead for first few bars, then more evident on last bars)
D | -------------------------------------|
A | -------------------------------------|
F | -------------------------------------|
C | ---------4-0-------------------------|
G | --222222-2-0-555555-5/7/99999-9/7----|
D | --000000-----333333-3/5/77777-7/5-6--|
A | ----------------------------------4--|

            
            
Suggest correction
Creating personal tab
Creating personal tab
You can edit any tab online and save it as your Personal.

You can edit, replace or remove any tab part or add personal notes – all changes will be seen only by you.

Personal tabs can be accessed anytime from any device, even offline.
Learn more »
Give kudos to tab author, rate the tab!
1 2 3 4 5
comments
print report bad tab
1 comment total.
+1 reply
Tom Araya 2,219 Apr 16, 2015 01:46 AM

Cool, dude!

guest
You may want to rate the tab now too:
select rating
Wanna post a correction for this tab? Suggest correction