Oops, an error
Loading. Please wait.

Tabi Chords

version 1
version 1

Whole song

Interactive

258,939 views 294 this week
4 commentsread comments
1 2 3 4 5
excellent!
x 10
add to favorites
launch autoscroll
font size
0
reset
transpose
0
reset
display chords
guitar tuner
Autoscroll
slow
fast
+/-
esc
set tempo
stop
Help us to improve Ultimate-Guitar.com Take our survey!
×
Title      :    Tabi
Artist     :    Paraluman
Album      :    Paraluman In-Lab

For any Comments and Suggestions:

Text Me:     09082360710/09156169501
Email Me:    jhenson_21@rocketmail.com
Friendster:  boybassista@yahoo.com


Tuning: Standard

  ======================================================================|
  | I Like to dedicate this song to Jennifer Esteban...Ingat ka lagi... |
  ======================================================================|

*Note: If you don't know how to read the tabs below. Better disregard it.. 

 and the counterpart if you know how to read then good.. Enjoy playing it!

*Please rate and Leave some comments...Thank you!               

                                
[Intro]

 E--A-D (2x)

 Guitar 1: (Delay)                 Guitar 2: (clean)
e|------------7~----------------|---------------1212--------------1212--|
B|--5~-7~--9~--------9~-7~-5~---|-99-1010--1212------99-1010-1212-------|
G|------------------------------|---------------------------------------|
D|------------------------------|---------------------------------------|
A|------------------------------|---------------------------------------|
E|------------------------------|---------------------------------------|


[Verse]

E                        A        D              
Naranasan mo na bang mawalan ng makakasama
E                   A             D
Sa gitna ng daan, di mo alam ang pupuntahan


[Chorus]

E                   A     D 
Huwag mag-alala, di kita pababayaan
E
Sa Iyong tabi
A         D
Ako ay iyong mahahawakan


[Repeat Intro]

 E--A-D (2x)

 Guitar 1: (Delay)                 Guitar 2: (clean)
e|------------7~----------------|---------------1212--------------1212--|
B|--5~-7~--9~--------9~-7~-5~---|-99-1010--1212------99-1010-1212-------|
G|------------------------------|---------------------------------------|
D|------------------------------|---------------------------------------|
A|------------------------------|---------------------------------------|
E|------------------------------|---------------------------------------|


[Verse]

E                      A            D
Naranasan mo na bang madapa at masugatan,

E                A            D 
Hawakan mo ko Hindi hindi pababayaan


[Adlib] 

F-B 3x then A-B

e|-6h4-6h4-6h4-6h4-6h4-----9-7--------9--7--9/10~9~--|
B|---------------------7-9---------------------------|
G|---------------------------------------------------|
D|---------------------------------------------------|
A|---------------------------------------------------|
E|---------------------------------------------------|


[Chorus] X2

E                   A     D 
Huwag mag-alala, di kita pababayaan
E
Sa Iyong tabi
A         D
Ako ay iyong mahahawakan


[Outro] 

E--A-D X2


www.ultimate-guitar.com

'=================='
/   RoCk En RoLL   \
'------------------'


************************************

| h  Hammer-on
| /  Slide up
| ~  Vibrato

************************************
Suggest correction
comments
print report bad tab
4 comments total. Showing first comments.
0 reply
markchordz 16,854 wrote on December 14 2010, 10:36 pm

hahaha..dami na palang ratings nitong kanta na to..salamat sa nagrate..hehehe

+1 reply
jacobpatria 10 wrote on March 2 2014, 06:48 am

walng beoken chords gawa kau...

0 reply
Jarl_Ang 10 wrote on February 16 2013, 07:48 am

NICE!
ONE!

guest
You may want to rate the tab now too:
select rating
Wanna post a correction for this tab? Suggest correction