Oops, an error
Loading. Please wait.

Tabi Tab

version 4
version 4

Whole song

Interactive

140 views 3 this week
no commentswrite comment
1 2 3 4 5
3 more votes to show rating
add to favorites
launch autoscroll
font size
0
reset
how to read this tab
guitar tuner
Autoscroll
slow
fast
+/-
esc
set tempo
stop
Hi guys! never talaga kukupas ang OPM :) here's the tab for lead guitar in TABI ! Sooo.. maririnig niyo naman
kung saang part to papasok. una muna ung rhythm then papasok ung lead... credit po kay Kuyang Gitarista 
na pinagtularan ko ng TABS eto ung link: https://www.youtube.com/watch?v=rm-qbNmzx_8

dito ko naman tinulad ung solo! salamat kay Ateng Gitarita: https://www.youtube.com/watch?v=vq25S3PtWVs


CREDIT PO SA LAHAT NG TINULARAN KO. pasensya di po ako marunong kumapa ng sariling Tab eh. hahaha! 
forgive me :)



Intro:

e|-----------------l----------------l------------l------------l-------------l--------------|
B|---9--11--9--13--l---------9--13--l--9---------l--9---------l--9----------l--9-----------|
G|-----------------l--9--11---------l-----11--9--l-----11--9--l-----11--9---l-----11--9----|           2x
D|-----------------l----------------l------------l------------l-------------l--------------|
A|-----------------l----------------l------------l------------l-------------l--------------|
E|-----------------l----------------l------------l------------l-------------l--------------|


e|-------------------13------------13--------|
B|---9----10----13----------13---------------|
G|-------------------------------------------|
D|-------------------------------------------|  REPEAT 'TIL VERSE
A|-------------------------------------------|
E|-------------------------------------------|


VERSE:

e|-----------------------------------------|
B|--10--9----------------------------------|
G|----------12--9--/10---\12---9-----------|
D|-----------------------------------------|  REPEAT every other stanza
A|-----------------------------------------|
E|-----------------------------------------|



CHORUS:

wag mag-alala....
e|-------------------13------------13--------|
B|---9----10----13----------13---------------|
G|-------------------------------------------|
D|-------------------------------------------|  
A|-------------------------------------------|
E|-------------------------------------------|

**pati sa instrumental after ng chorus ganyan rin**


REPEAT VERSE

THEN CHORUS AGAIN



GUITAR INSTRUMENTAL

e|--4--6--4--6--4--6--4--6--/--9--7--\--2--4--|
B|--------------------------------------------|
G|--------------------------------------------|
D|--------------------------------------------|
A|--------------------------------------------|
E|--------------------------------------------|


e|--6--4--6--4--6--4--6--/--9--7--9/10\9--7--|
B|-------------------------------------------|
G|-------------------------------------------|
D|-------------------------------------------|
A|-------------------------------------------|
E|-------------------------------------------|

e|--4--6--4--6--4--6--4--6--/--9--7--\--2--4--/--9--9--7--4--------------------------------------------|
B|-----------------------------------------------------------5--/---99999999999----1212121212121--\----|
G|-----------------------------------------------------------------------------------------------------|
D|-----------------------------------------------------------------------------------------------------|
A|-----------------------------------------------------------------------------------------------------|
E|-----------------------------------------------------------------------------------------------------|


THEN REPEAT SA TABS NG CHORUS



**THE END**



try to watch na lang ung link na pinost ko para may guide kayo. thanks! :D
open for revisions! follow me on twitter! 
@strumUdarlene


Suggest correction
Give kudos to tab author, rate the tab!
1 2 3 4 5
comments
print report bad tab
guest
You may want to rate the tab now too:
select rating
Wanna post a correction for this tab? Suggest correction