Oops, an error
Loading. Please wait.

After Laughter album tab

976 views 75 this week
1 commentread comment
1 2 3 4 5
1 last vote to show rating
add to favorites
×
Save as Personal and add changes to this tab that will be seen only by you. Learn more ›
×
You can save this tab as Personal to edit and correct it or add notes. All changes will be seen only by you. Learn more »
launch autoscroll
font size
0
reset
how to read this tab
guitar tuner
edit
Autoscroll
slow
fast
+/-
esc
set tempo
stop
Artist: Paramore    
Song: After Laughter
Transcriber :  Francis Sario
Site        :  https://www.facebook.com/francistwister.sario
Transcribed by Francis Sario (PARAMORE PHILIPPINES)

Tracklist:
1.      "Hard Times"
2.      "Rose-Colored Boy"
3.      "Told You So"
4.      "Forgiveness"
5.      "Fake Happy"
6.      "26"
7.      "Pool"
8.      "Grudges"
9.      "Caught in the Middle"
10.     "Idle Worship"
11.     "No Friend"
12.     "Tell Me How"


1.      "Hard Times"

[Intro] 
(Percussion)
e|-----11---13--------13---11------------11---13--------13---15----------|
B|---11---13------------13---11--------11---13------------13---16--------|
G|-----------------------------------------------------------------------|
D|-----------------------------------------------------------------------|
A|-----------------------------------------------------------------------|
E|-----------------------------------------------------------------------|

(Guitar)   
e|---------------8----------------8----------------8----------------8----|
B|---------------9----------------8----------------9----------------8----|
G|------8---10---10---10----8-----8-------8---10---10---10---12-----8----|
D|----8---10-----10-----10----8---10----8---10-----10-----10---13---10---|
A|---------------8----------------10---------------8----------------10---|
E|--------------------------------8---------------------------------8----|
               
[Verse]
e|-----------------------------------------------------------------------|
B|-----------------------------------------------------------------------|
G|------8---10--------10----8-------------8---10--------10---12----------|
D|----8---10------------10----8---------8---10------------10---13--------|
A|-----------------------------------------------------------------------|
E|-----------------------------------------------------------------------|
 
e|-----------------------------------------------------------------------|
B|-----------------------------------------------------------------------|
G|------8---10--------10----8-------------8---10--------10---12----------|
D|----8---10------------10----8---------8---10------------10---13--------|
A|-----------------------------------------------------------------------|
E|-----------------------------------------------------------------------|

[Pre-Chorus]
(SYNTH)
e|-----------------------------------------------------------------------|
B|-----------------8\----------------------------------------------------|
G|-----------------8\----------------------------------------------------|
D|----6---8---10---------------------------------------------------------|
A|-----------------------------------------------------------------------|
E|-----------------------------------------------------------------------|

[Chorus]
e|---8--8--xx-8--x-8--8----3-3-xx-3-x-3-3------------------------------------------|
B|---9--9--xx-9--x-9--9----4-4-xx-4-x-4-4---8-8-xx-8-x-8-8--8h9--9--xx-9--x-9--9---|
G|---10-10-xx-10-x-10-10---5-5-xx-5-x-5-5---8-8-xx-8-x-8-8--8----8--xx-8--x-8--8---|
D|---10-10-xx-10-x-10-10---5-5-xx-5-x-5-5---8-8-xx-8-x-8-8--8h10-10-xx-10-x-10-10--|
A|---8--8--xx-8--x-8--8----3-3-xx-3-x-3-3------------------------------------------|
E|---------------------------------------------------------------------------------|

e|---8--8--xx-8--x-8--8----3-3-xx-3-x-3-3------------------------------------------|
B|---9--9--xx-9--x-9--9----4-4-xx-4-x-4-4---8-8-xx-8-x-8-8--8h9--9--xx-9--x-9--9---|
G|---10-10-xx-10-x-10-10---5-5-xx-5-x-5-5---8-8-xx-8-x-8-8--8----8--xx-8--x-8--8---|
D|---10-10-xx-10-x-10-10---5-5-xx-5-x-5-5---8-8-xx-8-x-8-8--8h10-10-xx-10-x-10-10--|
A|---8--8--xx-8--x-8--8----3-3-xx-3-x-3-3------------------------------------------|
E|---------------------------------------------------------------------------------|

[Instrumental]
e|---------------8----------------8----------------8----------------8----|
B|---------------9----------------8----------------9----------------8----|
G|------8---10---10---10----8-----8-------8---10---10---10---12-----8----|
D|----8---10-----10-----10----8---10----8---10-----10-----10---13---10---|
A|---------------8----------------10---------------8----------------10---|
E|--------------------------------8---------------------------------8----|

[Verse]
e|-----------------------------------------------------------------------|
B|-----------------------------------------------------------------------|
G|------8---10--------10----8-------------8---10--------10---12----------|
D|----8---10------------10----8---------8---10------------10---13--------|
A|-----------------------------------------------------------------------|
E|-----------------------------------------------------------------------|

e|-----------------------------------------------------------------------|
B|-----------------------------------------------------------------------|
G|------8---10--------10----8-------------8---10--------10---12----------|
D|----8---10------------10----8---------8---10------------10---13--------|
A|-----------------------------------------------------------------------|
E|-----------------------------------------------------------------------|

[Pre-Chorus]
e|-----------------------------------------------------------------------|
B|-----------------8\----------------------------------------------------|
G|-----------------8\----------------------------------------------------|
D|----6---8---10---------------------------------------------------------|
A|-----------------------------------------------------------------------|
E|-----------------------------------------------------------------------|

[Chorus]
e|--8--8--xx-8--x-8--8---3-3-xx-3-x-3-3-----------------------------------------|
B|--9--9--xx-9--x-9--9---4-4-xx-4-x-4-4--8-8-xx-8-x-8-8--8h9--9--xx-9--x-9--9---|
G|--10-10-xx-10-x-10-10--5-5-xx-5-x-5-5--8-8-xx-8-x-8-8--8----8--xx-8--x-8--8---|
D|--10-10-xx-10-x-10-10--5-5-xx-5-x-5-5--8-8-xx-8-x-8-8--8h10-10-xx-10-x-10-10--|
A|--8--8--xx-8--x-8--8---3-3-xx-3-x-3-3-----------------------------------------|
E|------------------------------------------------------------------------------|
 
e|-----------------------------------------------------------------------|
B|-----------------------------------------------------------------------|
G|------8---10--------10----8-------------8---10--------10---12----------|
D|----8---10------------10----8---------8---10------------10---13--------|
A|-----------------------------------------------------------------------|
E|-----------------------------------------------------------------------|

[Bridge]
e|---8--------3---8------------8----3-----8----4-------------------------|
B|---9-------4----9--------9---9----4-4---9----4-------------------------|
G|---10-----5-----10------8----10---5-5---10---5-------------------------|
D|---10----5------10----10-----10---5-5---10---6-------------------------|
A|---8----3-------8----11------8----3-----8----6-------------------------|
E|---------------------------------------------4-------------------------|

[Chorus]
e|--8--8--xx-8--x-8--8---3-3-xx-3-x-3-3-----------------------------------------|
B|--9--9--xx-9--x-9--9---4-4-xx-4-x-4-4--8-8-xx-8-x-8-8--8h9--9--xx-9--x-9--9---|
G|--10-10-xx-10-x-10-10--5-5-xx-5-x-5-5--8-8-xx-8-x-8-8--8----8--xx-8--x-8--8---|
D|--10-10-xx-10-x-10-10--5-5-xx-5-x-5-5--8-8-xx-8-x-8-8--8h10-10-xx-10-x-10-10--|
A|--8--8--xx-8--x-8--8---3-3-xx-3-x-3-3-----------------------------------------|
E|------------------------------------------------------------------------------|

[Outro] 
e|------------------------------------------------------------------------------|
B|--------9------9----------4-------4----------8-------8----------9---9--8------|
G|------10-10--10-10------5---5---5---5------8---8---8---8------8---8-8--8------|
D|----10-----10-----10--5-------5-------5--8-------8-------8--10------10-8------|
A|------------------------------------------------------------------------------|
E|------------------------------------------------------------------------------|

e|--------------------------------------------------------------------------------|
B|--------9------9----------4-------4----------8-------8----------9-------9-8/----|
G|------10-10--10-10------5---5---5---5------8---8---8---8------8---8---8---8/----|
D|----10-----10-----10--5-------5-------5--8-------8-------8--10------10----8/-5--|
A|-----------------------------------------------------------------------------3--|
E|--------------------------------------------------------------------------------|

2.      "Rose-Colored Boy"

[Intro]
e|--xxx-10-10-x-8--8--xxx-10-10-x-8--8--|-----------------------------------------|
B|--xxx-10-10-x-10-10-xxx-10-10-x-10-10-|-----------------------------------------|
G|--xxx-------x-------xxx-------x-------|-7-7-7---7--10-9-7-----------------7-----|
D|--xxx-------x-------xxx-------x-------|-------7------------101010-7-10--10--10--|
A|--------------------------------------|-----------------------------------------|
E|--------------------------------------|-----------------------------------------|

e|------10-10-x-8--8--xxx-10-10-x-13-13-|-----------------------------------------|
B|------10-10-x-10-10-xxx-10-10-x-13-13-|-----------------------------------------|
G|------------x-------xxx-------x-------|-7-7-7-9-7--10-9-7-----------------7-10--|
D|------------x-------xxx-------x-------|-------------------101010-7-10--10-------|
A|----8---------------------------------|-----------------------------------------|
E|--------------------------------------|-----------------------------------------|

[Verse]
(Left SG)
e|---------------|--------------|--------------|---------------|
B|---------------|--------------|--------------|---------------|
G|---------------|--------------|--------------|-------3-2-----|
D|----7-10-----7-|---7-10-----7-|----7-3-----3-|---3-5-----3---|
A|--8------8-8---|-8------8-8---|--5-----5-5---|-3-------------|
E|---------------|--------------|--------------|---------------|

e|---------------|--------------|--------------|---------------|
B|---------------|--------------|--------------|---------------|
G|---------------|--------------|--------------|-------3-2-----|
D|----7-10-----7-|---7-10-----7-|----7-------7-|---3-5-----5---|
A|--8------8-8---|-8------8-8---|--5---8-5-5---|-3-------------|
E|---------------|--------------|--------------|---------------|

[Refrain]
(Left SG)
e|-------------------------------------------|-----------------------------------------------------|
B|-------------------------------------------|-----------------------------------------------------|
G|-------------------------------------------|-----------------------------------------------------|
D|-------------------------------------------|-----------------------------------------------------|
A|-88-88-88-88-8-8-1010-1010-1010-1010-10-10-|-1212-1212-1212-1212-12-12-1010-1010-1010-1010-10-10-|
E|-------------------------------------------|-----------------------------------------------------|

e|-------------------------------------------|-----------------------------------------------------|
B|-------------------------------------------|-----------------------------------------------------|
G|-------------------------------------------|-----------------------------------------------------|
D|-------------------------------------------|-----------------------------------------------------|
A|-88-88-88-88-8-8-1010-1010-1010-1010-10-10-|-1212-1212-1212-1212-12-12--77--77--77--77-7-7-------|
E|-------------------------------------------|-----------------------------------------------------|

(Right SG)
e|-------------------------------------------|-----------------------------------------------------|
B|-------------------------------------------|-----------------------------------------------------|
G|--101010-999-777---------------------------|--101010-999-777-------------------------------------|
D|-----------------101010-888-777-555-777----|-----------------101010-888-777--5-5-3---------------|
A|-------------------------------------------|-----------------------------------------------------|
E|-------------------------------------------|-----------------------------------------------------|

e|-------------------------------------------|-----------------------------------------------------|
B|-------------------------------------------|-----------------------------------------------------|
G|--101010-999-777---------------------------|--101010-999-777-------------------------------------|
D|-----------------101010-888-777-888-101010-|-----------------101010-888-777--5-5-----------------|
A|-------------------------------------------|-----------------------------------------------------|
E|-------------------------------------------|-----------------------------------------------------|

[Chorus]
  F            Am           Bb                        F          Am           Bb         C
e|----8----8---8--8---8-8------8----8---8--8---8-8--|----8----8--8--8---8-8------8----8--8-8--8-8-|
B|-1010-1010---8--8---8-8---1010-1010---8--8---8-8--|-1010-1010--8--8---8-8---1010-1010--8-8--8-8-|
G|-1010-1010---10-10--1010--1010-1010---10-10--1010-|-1010-1010--10-10--1010--1010-1010--9-9--9-9-|
D|--------------------------------------------------|---------------------------------------------|
A|--------------------------------------------------|---------------------------------------------|
E|--------------------------------------------------|---------------------------------------------|

    Bb           C               Bb           C
e|----8---8-6666---8----8-8888-|---8---8-6666---8----8-8888-------------------|
B|--6-6-6-6-6666-8-8--8-8-8888-|-6-6-6-6-6666-8-8--8-8-8888-------------------|
G|--7-7-7-7-7777-9-9--9-9-9999-|-7-7-7-7-7777-9-9--9-9-9999-------------------|
D|-----------------------------|----------------------------------------------|
A|-----------------------------|----------------------------------------------|
E|-----------------------------|----------------------------------------------|

e|--xxx-10-10-x-8--8--xxx-10-10-x-8--8--|-----------------------------------------|--------------|
B|--xxx-10-10-x-10-10-xxx-10-10-x-10-10-|-----------------------------------------|----55-8-6----|
G|--xxx-------x-------xxx-------x-------|-7-7-7---7--10-9-7-----------------------|-55-----------|
D|--xxx-------x-------xxx-------x-------|-------7------------101010-7-10----------|--------------|
A|--------------------------------------|-----------------------------------------|--------------|
E|--------------------------------------|-----------------------------------------|--------------|
                                                                                    ** ** * *

[Verse 2]
(Left SG)
e|---------------|--------------|--------------|---------------|
B|---------------|--------------|--------------|---------------|
G|---------------|--------------|--------------|---------------|
D|----7-10-----7-|---7-10-----7-|--------------|---------------|
A|--8------8-8---|-8------8-8---|--------------|---------------|
E|---------------|--------------|--------------|---------------|

e|---------------|--------------|--------------|---------------|
B|---------------|--------------|--------------|---------------|
G|---------------|--------------|--------------|---------------|
D|----7-10-----7-|---7-10-----7-|--------------|---------------|
A|--8------8-8---|-8------8-8---|--------------|---------------|
E|---------------|--------------|--------------|---------------|

(Right SG)[1:32}
e|--------------------------------------------------------------------------|
B|--------10---10/----------------------------------------------------------|
G|--------10---10/----------------------------------------------------------|
D|--------10---10/----------------------------------------------------------|
A|--------8-----8/----------------------------------------------------------|
E|--------------------------------------------------------------------------|

(Keys){1:25} {1:33)
e|--10-12-13-12-10---------10-12-13-12-10-----------------------------------|
B|-----------------10-10-------------------10-10----------------------------|
G|--------------------------------------------------------------------------|
D|--------------------------------------------------------------------------|
A|--------------------------------------------------------------------------|
E|--------------------------------------------------------------------------|

[Refrain]
(Left SG) (Palm Muted)
e|---------------------------------------|-----------------------------------------------------|
B|---------------------------------------|-----------------------------------------------------|
G|---------------------------------------|-----------------------------------------------------|
D|--------------------------------77-----|-------------------------------------------77--------|
A|-5555555555555555-7777777777777----77--|-8888888888888888-101010101010101010101010----77-----|
E|---------------------------------------|-----------------------------------------------------|

e|-------------------------------------------|-----------------------------------------------------|
B|-------------------------------------------|-----------------------------------------------------|
G|-------------------------------------------|-----------------------------------------------------|
D|-------------------------------------------|-----------------------------------------------------|
A|-8888888888888888-101010101010101010101010-|-12121212121212121212121212121212-7777777777777777---|
E|-------------------------------------------|-----------------------------------------------------|

(Right SG) (Palm Muted)
e|---------------------------------------------------------------------------|
B|---------------------------------------------------------------------------|
G|---------------------------------------------------------------------------|
D|------------------------------------------------------------------------10-|
A|-8(16x)--10(16x)--12(16x)--10(16x)----8(16x)--10(16x)--8(16x)--10(16x)--10-|
E|------------------------------------------------------------------------8--|

[Chorus]
  F            Am           Bb                        F          Am           Bb         C
e|----8----8---8--8---8-8------8----8---8--8---8-8--|----8----8--8--8---8-8------8----8--8-8--8-8-|
B|-1010-1010---8--8---8-8---1010-1010---8--8---8-8--|-1010-1010--8--8---8-8---1010-1010--8-8--8-8-|
G|-1010-1010---10-10--1010--1010-1010---10-10--1010-|-1010-1010--10-10--1010--1010-1010--9-9--9-9-|
D|--------------------------------------------------|---------------------------------------------|
A|--------------------------------------------------|---------------------------------------------|
E|--------------------------------------------------|---------------------------------------------|

    Bb           C               Bb           C
e|----8---8-6666---8----8-8888-|---8---8-6666---8----8-8888-------------------|
B|--6-6-6-6-6666-8-8--8-8-8888-|-6-6-6-6-6666-8-8--8-8-8888-------------------|
G|--7-7-7-7-7777-9-9--9-9-9999-|-7-7-7-7-7777-9-9--9-9-9999-------------------|
D|-----------------------------|----------------------------------------------|
A|-----------------------------|----------------------------------------------|
E|-----------------------------|----------------------------------------------|

e|--xxx-10-10-x-8--8--xxx-10-10-x-8--8--|-----------------------------------------|--------------|
B|--xxx-10-10-x-10-10-xxx-10-10-x-10-10-|-----------------------------------------|----55-8-6----|
G|--xxx-------x-------xxx-------x-------|-7-7-7---7--10-9-7-----------------------|-55-----------|
D|--xxx-------x-------xxx-------x-------|-------7------------101010-7-10----------|--------------|
A|--------------------------------------|-----------------------------------------|--------------|
E|--------------------------------------|-----------------------------------------|--------------|
                                                                                    ** ** * *

[Pre-Bridge]
e|------13--------13---------12----------12-13-------------------------------|
B|----15--------15--------13-----13----13------------------------------------|
G|--14-------14--------12-----------12---------------------------------------|
D|---------------------------------------------------------------------------|
A|---------------------------------------------------------------------------|
E|---------------------------------------------------------------------------|

[Bridge]
(Left SG)
e|---------------------|------------------|-----------------|------------------|
B|---------------------|------------------|-----------------|------------------|
G|---------------------|------------------|-----------------|------------------|
D|-------------------5-|----------------5-|-7p5-----------5-|----------------5-|
A|-8h10p8----------8---|-8h10---------8---|-----8p5-----8---|-7h8----------8---|
E|-------h10-6-xxx-----|-----xx-8-xxx-----|--------6-xxx----|-----xx-8-xxx-----|

(Right SG) (24x) means 24 times picked
e|---------------------------------------------------------------------------|
B|---------------------------------------------------------------------------|
G|---------------------------------------------------------------------------|
D|---------------------------------------------------------------------------|
A|-5(24x)-8(8x)------8(8x)---5(24x)-8(8x)-7(16x)-----------------------------|
E|-------------8(24x)--------------------------------------------------------|

[Chorus] (x2)
  F            Am           Bb                        F          Am           Bb         C
e|----8----8---8--8---8-8------8----8---8--8---8-8--|----8----8--8--8---8-8------8----8--8-8--8-8-|
B|-1010-1010---8--8---8-8---1010-1010---8--8---8-8--|-1010-1010--8--8---8-8---1010-1010--8-8--8-8-|
G|-1010-1010---10-10--1010--1010-1010---10-10--1010-|-1010-1010--10-10--1010--1010-1010--9-9--9-9-|
D|--------------------------------------------------|---------------------------------------------|
A|--------------------------------------------------|---------------------------------------------|
E|--------------------------------------------------|---------------------------------------------|

    Bb           C               Bb           C
e|----8---8-6666---8----8-8888-|---8---8-6666---8----8-8888-------------------|
B|--6-6-6-6-6666-8-8--8-8-8888-|-6-6-6-6-6666-8-8--8-8-8888-------------------|
G|--7-7-7-7-7777-9-9--9-9-9999-|-7-7-7-7-7777-9-9--9-9-9999-------------------|
D|-----------------------------|----------------------------------------------|
A|-----------------------------|----------------------------------------------|
E|-----------------------------|----------------------------------------------|

e|--xxx-10-10-x-8--8--xxx-10-10-x-8--8--|-----------------------------------------|--------------|
B|--xxx-10-10-x-10-10-xxx-10-10-x-10-10-|-----------------------------------------|----55-8-6----|
G|--xxx-------x-------xxx-------x-------|-7-7-7---7--10-9-7-----------------------|-55-----------|
D|--xxx-------x-------xxx-------x-------|-------7------------101010-7-10----------|--------------|
A|--------------------------------------|-----------------------------------------|--------------|
E|--------------------------------------|-----------------------------------------|--------------|
                                                                                    ** ** * *


3.      "Told You So"

[Verse]
e|------------------5------------------5-|-----------------5-------------------5---|
B|----------6-6---6-6----------6-6---6-6-|---------6-6---6-6----------6-6---6--6---|
G|---7------7-7---7-7---7------7-7---7-7-|--7------7-7---7-7---7------7-7---7--7---|
D|---8------7-7---7-7---8------7-7---7-7-|--8------7-7---7-7---8------7-7---7--7---|
A|---8------5-5---5-5---8------5-5---5-5-|--8------5-5---5-5---8------5-5---5--5---|
E|---6------------------6----------------|--6------------------6-------------------|


e|-------------------------------------|-------------------------------------------|
B|-------------------------------------|---------------6-----6--88--------6-8--10--|
G|-------------------------------------|-----7-5-77----------------77-5------------|
D|-------------------------------------|-------------------------------------------|
A|-------------------------------------|-------------------------------------------|
E|-------------------------------------|-------------------------------------------|

[Refrain]
e|---------6-5----------8p6-5-----5----|----------6-5----------8p6-5-----5-----|
B|---5h6-8--------------------8-6------|----5p6-8--------------------8-6-------|
G|-------------5-7------------------7--|--------------5-7------------------7---| (2x)
D|-------------------------------------|---------------------------------------|
A|-------------------------------------|---------------------------------------|
E|-------------------------------------|---------------------------------------|

[Chorus]
e|------5-----------------------|-----------5----------------------------------|
B|----6----6---6--------6-------|---------6----6---6--------6------------------|
G|-7---------7----7--5----------|-----7---------7----7--5----------------------| (4x)
D|------------------------------|----------------------------------------------| 
A|------------------------------|----------------------------------------------|
E|------------------------------|----------------------------------------------|
         
[Interlude]
(Guitar 1)
e|-------------------------------------5\-------------------------------------|
B|---6---6-6-----6---6---6h8-6---6-6---6\-------------------------------------|
G|-----7-----7-----7---7-------7-----7-7\-------------------------------------|
D|-------------------------------------7\-------------------------------------|
A|----------------------------------------------------------------------------|
E|----------------------------------------------------------------------------|

(Guitar 2)
e|----------------------------------------------------------------------------|
B|---3---3-3-----------------3---3-3---6\-------------------------------------|
G|-----3-----3---2---2---2-----3-----3-7\-------------------------------------|
D|-----------------3---3---------------7\-------------------------------------|
A|----------------------------------------------------------------------------|
E|----------------------------------------------------------------------------|

[Verse 2]
e|------------------5------------------5-|-----------------5-------------------5---|
B|----------6-6---6-6----------6-6---6-6-|---------6-6---6-6----------6-6---6--6---|
G|---7------7-7---7-7---7------7-7---7-7-|--7------7-7---7-7---7------7-7---7--7---|
D|---8------7-7---7-7---8------7-7---7-7-|--8------7-7---7-7---8------7-7---7--7---|
A|---8------5-5---5-5---8------5-5---5-5-|--8------5-5---5-5---8------5-5---5--5---|
E|---6------------------6----------------|--6------------------6-------------------|

        (Guitar 2) 
e|-------------------------------------|-------------------------------------------|
B|-------------------------------------|---------------6-----6--88--------6-8--10--|
G|-------------------------------------|-----7-5-77----------------77-5------------|
D|-------------------------------------|-------------------------------------------|
A|-------------------------------------|-------------------------------------------|
E|-------------------------------------|-------------------------------------------|

[Refrain]
e|---------6-5----------8p6-5-----5----|----------6-5----------8p6-5-----5-----|
B|---5h6-8--------------------8-6------|----5p6-8--------------------8-6-------|
G|-------------5-7------------------7--|--------------5-7------------------7---| (2x)
D|-------------------------------------|---------------------------------------|
A|-------------------------------------|---------------------------------------|
E|-------------------------------------|---------------------------------------|

[Chorus]
e|------5-----------------------|-----------5----------------------------------|
B|----6----6---6--------6-------|---------6----6---6--------6------------------|
G|-7---------7----7--5----------|-----7---------7----7--5----------------------| (4x)
D|------------------------------|----------------------------------------------| 
A|------------------------------|----------------------------------------------|
E|------------------------------|----------------------------------------------|

[Bridge]
e|---8------10-------8------10--------8------10------8------10------------|
B|---8------10-------8------10--------8------10------8------10------------|
G|---9------10-------9------10--------9------10------9------10------------|
D|---10-----12-------10-----12--------10-----12------10-----12------------|
A|------------------------------------------------------------------------|
E|------------------------------------------------------------------------|
             
[Instrumental]
e|-----------------------|-------------------------|----------------------------|-----------5---|
B|-6---5---6---5---------|--6---5---6---5----------|--6---5---6---5--------6----|-6---5---6-----|
G|---7---5---7---5-5-5h7-|----7---5---7---5--5h7---|----7---5---7---5-x5h7---7--|---7---5---7---|
D|-----------------------|-------------------------|----------------------------|------------7--|
A|-----------------------|------------------8---8--|----------------------------|---------------|
E|-----------------------|-------------------------|----------------------------|---------------|

[Chorus] (x2)
  F            Am           Bb                        F          Am           Bb         C
e|----8----8---8--8---8-8------8----8---8--8---8-8--|----8----8--8--8---8-8------8----8--8-8--8-8-|
B|-1010-1010---8--8---8-8---1010-1010---8--8---8-8--|-1010-1010--8--8---8-8---1010-1010--8-8--8-8-|
G|-1010-1010---10-10--1010--1010-1010---10-10--1010-|-1010-1010--10-10--1010--1010-1010--9-9--9-9-|
D|--------------------------------------------------|---------------------------------------------|
A|--------------------------------------------------|---------------------------------------------|
E|--------------------------------------------------|---------------------------------------------|

    Bb           C               Bb           C
e|----8---8-6666---8----8-8888-|---8---8-6666---8----8-8888-------------------|
B|--6-6-6-6-6666-8-8--8-8-8888-|-6-6-6-6-6666-8-8--8-8-8888-------------------|
G|--7-7-7-7-7777-9-9--9-9-9999-|-7-7-7-7-7777-9-9--9-9-9999-------------------|
D|-----------------------------|----------------------------------------------|
A|-----------------------------|----------------------------------------------|
E|-----------------------------|----------------------------------------------|

e|--xxx-10-10-x-8--8--xxx-10-10-x-8--8--|-----------------------------------------|--------------|
B|--xxx-10-10-x-10-10-xxx-10-10-x-10-10-|-----------------------------------------|----55-8-6----|
G|--xxx-------x-------xxx-------x-------|-7-7-7---7--10-9-7-----------------------|-55-----------|
D|--xxx-------x-------xxx-------x-------|-------7------------101010-7-10----------|--------------|
A|--------------------------------------|-----------------------------------------|--------------|
E|--------------------------------------|-----------------------------------------|--------------|
                                                                                    ** ** * *

[Outro]
e|---------------5\-----------------------------------------------------------|
B|---6---6-6-----6\-----------------------------------------------------------|
G|-----7-----7---7\-----------------------------------------------------------|
D|----------------------------------------------------------------------------|
A|----------------------------------------------------------------------------|
E|----------------------------------------------------------------------------|

        (Guitar 2) [3:06]
e|---------------5\-----------------------------------------------------------|
B|---3---3-3-----6\-----------------------------------------------------------|
G|-----3-----3---7\-----------------------------------------------------------|
D|----------------------------------------------------------------------------|
A|----------------------------------------------------------------------------|
E|----------------------------------------------------------------------------|

4.      "Forgiveness"

[Intro]
(Left Speaker Guitar)
e|------------------------------------|------------------------------------|
B|------------7-----------------------|------------7-----------------------|
G|----7------7--7-----------------4---|----7------7--7-----------------4---|
D|-------------------7--------------5-|-------------------7--------------5-|
A|--5---5--5--------------------------|--5---5--5--------------------------|
E|-----------------5----5-7-3---3-----|-----------------5----5-7-3---3-----|

(Right Speaker Guitar)
e|------0------0-2-------0---------0--|------0------0-2-------0---------0--|
B|----3--3----3--------3--3------3--3-|----3--3----3--------3--3------3--3-|
G|---2------2--------2---------2------|---2------2--------2---------2------|
D|--0------0--------------------------|--0------0--------------------------|
A|-----------------0------------------|-----------------0------------------|
E|--------------------------3---------|--------------------------3---------|

[Verse] (x2)
I
Left Speaker Guitar
e|------------------------------------|------------------------------------|
B|------------7-----------------------|------------7-----------------------|
G|----7------7--7-----------------4---|----7------7--7-----------------4---|
D|-------------------7----------5---5-|-------------------7----------5---5-|
A|--5---5--5--------------------------|--5---5--5--------------------------|
E|-----------------5----5-7--3--------|-----------------5----5-7---3-------|

Right Speaker Guitar
e|------------------------------------|------14------12------14------12----|
B|------------------------------------|--------15--------------15----------|
G|------------------------------------|----------(14)------------(14)------|
D|------------------------------------|------------------------------------|
A|------------------------------------|------------------------------------|
E|------------------------------------|------------------------------------|

II
Left Speaker Guitar
e|-----------------|------------------|-----------------|------------------|
B|------3-----3----|-------7-----5----|------3-----3----|-------7----10----|
G|----2-----2---2--|----4-----4---4---|----2-----2---2--|----4-----7-------|
D|--4-----4--------|--5-----5---------|--4-----4--------|--5-----7---------|
A|-----------------|------------------|-----------------|------------------|
E|-----------------|------------------|-----------------|------------------|

[Chorus]
Left Speaker Guitar  
e|------------------------------------|------------------------------------|
B|------------7-----------------------|------------7-----------------------|
G|----7------7--7-----------------4---|----7------7--7-----------------4---|
D|-------------------7----------5---5-|-------------------7----------5---5-| (2x)
A|--5---5--5--------------------------|--5---5--5--------------------------|
E|-----------------5----5-7--3--------|-----------------5----5-7---3-------|

Right Speaker Guitar
B|--0------0-------0--------0---------|--0------0-------0--------0---------|
B|--3------3-------3--------3---------|--3------3-------3--------3---------|
G|--2------2-------2--------2---------|--2------2-------2--------2---------|
D|--0------0--------------------------|--0------0--------------------------| (2x)
A|-----------------0------------------|-----------------0------------------|
E|--------------------------3---------|--------------------------3---------|

[Verse] 
I
Left Speaker Guitar
e|------------------------------------|------------------------------------|
B|------------7-----------------------|------------7-----------------------|
G|----7------7--7-----------------4---|----7------7--7-----------------4---|
D|-------------------7----------5---5-|-------------------7----------5---5-|
A|--5---5--5--------------------------|--5---5--5--------------------------|
E|-----------------5----5-7--3--------|-----------------5----5-7---3-------|

Right Speaker Guitar
e|------------------------------------|------14------12------14------12----|
B|------------------------------------|--------15--------------15----------|
G|------------------------------------|----------(14)------------(14)------|
D|------------------------------------|------------------------------------|
A|------------------------------------|------------------------------------|
E|------------------------------------|------------------------------------|

II
Left Speaker Guitar
e|-----------------|------------------|-----------------|------------------|
B|------3-----3----|-------7-----5----|------3-----3----|-------7----10----|
G|----2-----2---2--|----4-----4---4---|----2-----2---2--|----4-----7-------|
D|--4-----4--------|--5-----5---------|--4-----4--------|--5-----7---------|
A|-----------------|------------------|-----------------|------------------|
E|-----------------|------------------|-----------------|------------------|

[Pre-Bridge]
  (Harmony with Bass) Palm muted 
e|------------------------------------|------------------------------------|
B|--------------7-----------------7---|--------------7-----------------7---|
G|-6-6--6-7-------7--6-6--6-7-------7-|-6-6--6-7-------7--6-6--6-7-------7-|
D|----------5-5---------------5-5-----|----------5-5---------------5-5-----|
A|------------------------------------|------------------------------------|
E|------------------------------------|------------------------------------|

[Bridge]
e|-9--------10-----|--9--------10-----|---9------10-----|-9--9-----9-----9-------9-------9-|
B|-10-------12-----|--10-------12-----|--10------12-----|-10-10--10-10-10--10--10--10--10--|
B|-11-------12-----|--11-------12-----|--11------11-----|-9--9--9-----9------9-------9-----|
D|-----------------|------------------|-----------------|----------------------------------|
D|-----------------|------------------|-----------------|----------------------------------|
E|-----------------|------------------|-----------------|----------------------------------|

[Chorus]
Left Speaker Guitar  
e|------------------------------------|------------------------------------|
B|------------7-----------------------|------------7-----------------------|
G|----7------7--7-----------------4---|----7------7--7-----------------4---|
D|-------------------7----------5---5-|-------------------7----------5---5-| (2x)
A|--5---5--5--------------------------|--5---5--5--------------------------|
E|-----------------5----5-7--3--------|-----------------5----5-7---3-------|

Right Speaker Guitar
B|--0------0-------0--------0---------|--0------0-------0--------0---------|
B|--3------3-------3--------3---------|--3------3-------3--------3---------|
G|--2------2-------2--------2---------|--2------2-------2--------2---------|
D|--0------0--------------------------|--0------0--------------------------| (2x)
A|-----------------0------------------|-----------------0------------------|
E|--------------------------3---------|--------------------------3---------|

Right Speaker Guitar (3:14) 
e|------0------0-2-------0---------0--|------0------0-2-------0---------0--|
B|----3--3----3--------3--3------3--3-|----3--3----3--------3--3------3--3-|
G|---2------2--------2---------2------|---2------2--------2---------2------|
D|--0------0--------------------------|--0------0--------------------------|
A|-----------------0------------------|-----------------0------------------|
E|--------------------------3---------|--------------------------3---------|

[Outro]
e|---------------------------------------------------------------------------|
B|---------------------------------------------------------------------------|
G|-----7---------7--------7--------7-----------------------------------------|
D|---7---------7--------7--------7-------------------------------------------|
A|-5---------5--------5--------5---------------------------------------------|
E|---------------------------------------------------------------------------|

[Ending] 
D

5.      "Fake Happy"

[Intro]
(Left Speaker) (Acoustic) 
    G      D7    Em     C            G     D7    Em       C
e|-----3------2------0---------3---|---3----3-2----0--------------3----------|
B|-----3------1------0--1--3/5---5-|---3------1----0----3-1--3/5----5--------|
B|--0--0------2----0-0-------------|-0-0------2----0--4----------------------|
D|---------0-----2-----------------|-------0-----2---------------------------|
A|----------------------3----------|----------------------3------------------|
E|--3------------0-----------------|-3-----------0---------------------------|                                                                      

    G      D7 B7    Em  C            G     D7    Em       C
e|-----3-----8-----7-7---------3---|---3------2-----0--------------3---------|
B|-----3-------8-----8--1--3/5---5-|---3---3--3-----0---3-1--3/5----5--------|
B|--0--0---7---8-/9--9-------------|-0-0------2---0-0--4---------------------|
D|---------0-----------------------|-------0-----2---------------------------|
A|----------------------3----------|----------------------3------------------|
E|--3------------------------------|-3-----------0---------------------------| 

[Intro 2]
(Keyboards)

Left Speaker
e|------------------------|-----------------------|-----------------------|-----------------------|
B|---8--8---8--8--7--8--7-|--8--8---8--8--7--8--7-|--8--8---8--8--7--8--7-|--8--8---8--8--7--8--7-|
G|---9--9---9--9--7--9--7-|--9--9---9--9--7--9--7-|--9--9---9--9--7--9--7-|--9--9---9--9--7--9--7-|
D|--10-10--10-10--9-10--9-|-10-10--10-10--9-10--9-|-10-10--10-10--9-10--9-|-10-10--10-10--9-10--9-|
A|------------------------|-----------------------|-----------------------|-----------------------|
E|------------------------|-----------------------|-----------------------|-----------------------|

Right Speaker
e|------------------------|-----------------------|-----------------------|--7-7------------------|
B|---8--8---8--8--7--8--7-|--8--8---8--8--7--8--7-|--8--8---8--8--7--8--7-|--------10-8-7---------|
G|---9--9---9--9--7--9--7-|--9--9---9--9--7--9--7-|--9--9---9--9--7--9--7-|----------------9-7----|
D|--10-10--10-10--9-10--9-|-10-10--10-10--9-10--9-|-10-10--10-10--9-10--9-|---------------------9-|
A|------------------------|-----------------------|-----------------------|-----------------------|
E|------------------------|-----------------------|-----------------------|-----------------------|

[Verse]
I
Left Speaker Guitar
e|------------------------|-----------------------|-----------------------|-----------------------|
B|------------------------|-----------------------|-----------------------|-----------------------|
G|------------------------|-----------------------|------------------4----|-----------------------|
D|------------------------|-----------------5-7---|-----------------------|------------------5-7--|
A|--5-7--5-7--5-7----5----|--5-7--5-7--5-7--------|---5-7--5-7--5-7-------|---5-7--5-7--5-7-------|
E|------------------------|-----------------------|-----------------------|-----------------------|
    * *  * *  * *    *       * *  * *  * *  * *       * *  * *  * *  *        * *  * *  * *  * *

Right Speaker(Keys)
e|------------------------|-----------------------|-----------------------|-----------------------|
B|------------------------|----------------8--10--|-----------------------|----------------8--10--|
G|--7-9--7-9--7-9----7----|--7-9--7-9--7-9--------|--7-9--7-9--7-9----7---|--7-9--7-9--7-9--------|
D|------------------------|-----------------------|-----------------------|-----------------------|
A|------------------------|-----------------------|-----------------------|-----------------------|
E|------------------------|-----------------------|-----------------------|-----------------------|
    * *  * *  * *    *       * *  * *  * *  *  *     * *  * *  * *    *      * *  * *  * *  *  *

II
Left Speaker Guitar
e|------------------------|-----------------------|-----------------------|-----------------------|
B|------------------------|-----------------------|-----------------------|-----------------------|
G|------------------------|-----------------------|------------------4----|---------------------7-|
D|------------------------|-----------------5-7---|-----------------------|---------------5-7/9---|
A|--5-7--5-7--5-7----5----|--5-7--5-7--5-7--------|---5-7--5-7--5-7-------|-5-7--5-7--5-7---------|
E|------------------------|-----------------------|-----------------------|-----------------------|
    * *  * *  * *    *       * *  * *  * *  * *       * *  * *  * *  *      * *  * *  * * * 

Right Speaker(Keys)
e|------------------------|-----------------------|-----------------------|-----------------------|
B|------------------------|----------------8--10--|-----------------------|----------------8--10--|
G|--7-9--7-9--7-9----7----|--7-9--7-9--7-9--------|--7-9--7-9--7-9----7---|--7-9--7-9--7-9--------|
D|------------------------|-----------------------|-----------------------|-----------------------|
A|------------------------|-----------------------|-----------------------|-----------------------|
E|------------------------|-----------------------|-----------------------|-----------------------|
    * *  * *  * *    *       * *  * *  * *  *  *     * *  * *  * *    *      * *  * *  * *  *  *

 Right Speker(Guitar)- Add Phaser ,Chorus,Reverb- Do until Refrain
e|----7-----7------7-----7----7------7-----7-----7--------7-------7----------|
B|-----8------8------8-----8----8------8-----8------8--------8------8--------|
G|--7----7------7------7-----7-----7-----7-----7------7---------7-----7------|
D|---------------------------------------------------------------------------|
A|---------------------------------------------------------------------------|
E|---------------------------------------------------------------------------|

[Refrain]
(Keyboards)
Left Speaker
e|------------------------|-----------------------|-----------------------|-----------------------|
B|---8--8---8--8--7--8--7-|--8--8---8--8--7--8--7-|--8--8---8--8--7--8--7-|--8--8---8--8--7--8--7-|
G|---9--9---9--9--7--9--7-|--9--9---9--9--7--9--7-|--9--9---9--9--7--9--7-|--9--9---9--9--7--9--7-|
D|--10-10--10-10--9-10--9-|-10-10--10-10--9-10--9-|-10-10--10-10--9-10--9-|-10-10--10-10--9-10--9-|
A|------------------------|-----------------------|-----------------------|-----------------------|
E|------------------------|-----------------------|-----------------------|-----------------------|

Right Speaker
e|------------------------|-----------------------|-----------------------|--7-7------------------|
B|---8--8---8--8--7--8--7-|--8--8---8--8--7--8--7-|--8--8---8--8--7--8--7-|--------10-8-7---------|
G|---9--9---9--9--7--9--7-|--9--9---9--9--7--9--7-|--9--9---9--9--7--9--7-|----------------9-7----|
D|--10-10--10-10--9-10--9-|-10-10--10-10--9-10--9-|-10-10--10-10--9-10--9-|---------------------9-|
A|------------------------|-----------------------|-----------------------|-----------------------|
E|------------------------|-----------------------|-----------------------|-----------------------|

Left Speaker(Guitar)
e|------------------------|-----------------------|-------------------12^-|-----------------------|
B|------------------------|-----------------------|-----------------------|-----------------------|
G|------------------------|-----------------------|-----------------------|-----------------------|
D|------------------------|-----------------------|-----------------------|-----------------------|
A|------------------------|-----------------------|-----------------------|-----------------------|
E|------------------------|-----------------------|-----------------------|-----------------------|

[Chorus]
Left Speaker Guitar
    G        C           Bm      C       Em      D          G
    Pls...   Pretend...  Pls...  Every.. Here..  Happy...   too..
e|--3------------------------------------7-------5--------------|
B|--3--------8-----------7-------8-------8-------7----------8---|
G|--0--------0-----------7-------0-------0-------7----------0---|
D|--0--------0-----------0-------0-------x-------0--------------|
A|--2--------7-----------x-------7-------7----------------------|
E|--3--------8-----------7-------8------------------------------|
    
    G                             G
e|------------10--7--------------------------10---7-------------|
B|-------7h8----------10---8-----------7h8-----------10--8------|
G|--7h9---------------------------7h9---------------------------|
D|--------------------------------------------------------------|
A|--------------------------------------------------------------|
E|--------------------------------------------------------------|

Right Speaker Guitar
    G        C           Bm      C       Em      D          G
    Pls...   Pretend...  Pls...  Every.. Here..  Happy...   too..
e|---------------------------------------0-------0---------------|
B|--12-------8-----------7-------8-------0-------0----------12---|
D|--12-------9-----------7-------9-------12------11---------12---|
D|--12-------10----------9-------10------12------12---------12---|
A|--10-------10----------9-------10------x-------12---------10---|
E|-----------8-----------7-------8-------12------10--------------|

Do Keyboard Intro
Do Same to Verse
Do Refrain-(keys only)

Left Speaker
e|------------------------|-----------------------|-----------------------|-----------------------|
B|---8--8---8--8--7--8--7-|--8--8---8--8--7--8--7-|--8--8---8--8--7--8--7-|--8--8---8--8--7--8-10-|
G|---9--9---9--9--7--9--7-|--9--9---9--9--7--9--7-|--9--9---9--9--7--9--7-|--9--9---9--9--7--9-11-|
D|--10-10--10-10--9-10--9-|-10-10--10-10--9-10--9-|-10-10--10-10--9-10--9-|-10-10--10-10--9-10-12-|
A|------------------------|-----------------------|-----------------------|-----------------------|
E|------------------------|-----------------------|-----------------------|-----------------------|

[Bridge]
Keys
e|---------------------------------------------------------------------------|
B|-------12--------------14---------------14----------------14---------------|
G|-12h14---h14-----12h14---h14-------12h14---h14------12h14---h14------------|
D|---------------------------------------------------------------------------|
A|---------------------------------------------------------------------------|
E|---------------------------------------------------------------------------|

Badap badap bap bap...

Left Speaker Guitar ( Muted )
e|---------------------------------------------------------------------------|
B|---------------------------------------------------------------------------|
G|-0-2-4-4--0-2-4-4--0-2-4-4--0-2-4-4--0-2-4-4--0-2-4-4--0-2-4-4--0-2-4-4----|
D|---------------------------------------------------------------------------|
A|---------------------------------------------------------------------------|
E|---------------------------------------------------------------------------|

e|---------------------------------------------------------------------------|
B|---------------------------------------------------------------------------|
G|-----0-0------0-0-----0-0----0-0-----0-0-----0-0-----0-0-----0-0-----------|
D|-0-2------0-2-----0-2-----0-2-----0-2-----0-2-----0-2-----0-2--------------|
A|---------------------------------------------------------------------------|
E|---------------------------------------------------------------------------|

e|---------------------------------------------------------------------------|
B|---------------------------------------------------------------------------|
G|-0-2-4-4--0-2-4-4-----0-0-----0-0--0-2-4-4--0-2-4-4---0-2-2---0-2-2--------|
D|------------------0-2-----0-2-----------------------0-------0--------------|
A|---------------------------------------------------------------------------|
E|---------------------------------------------------------------------------|

e|---------------------------------------------------------------------------|
B|---------------------------------------------------------------------------|
G|-0-2-4-4--0-2-4-4--0-2-4-4--0-2-4-4--0-2-4-4--0-2-4-4--0-2-4-4--0-2-4-4----|
D|---------------------------------------------------------------------------|
A|---------------------------------------------------------------------------|
E|---------------------------------------------------------------------------|

Right Speaker Guitar ( Muted )
e|---------------------------------------------------------------------------|
B|---------------------------------------------------------------------------|
G|-7-7-9-9--7-7-9-9--7-7-9-9--7-7-9-9--7-7-9-9--7-7-9-9--7-7-9-9--7-7-9-9----|
D|---------------------------------------------------------------------------|
A|---------------------------------------------------------------------------|
E|---------------------------------------------------------------------------|

e|---------------------------------------------------------------------------|
B|---------------------------------------------------------------------------|
G|-0-2-4-4--0-2-4-4--0-2-4-4--0-2-4-4--0-2-4-4--0-2-4-4----------------------|
D|-------------------------------------------------------2-------------------|
A|----------------------------------------------------------5---3-3h5--------|
E|---------------------------------------------------------------------------|

e|---------------------------------------------------------------------------|
B|---------------------------------------------------------------------------|
G|-7-7-9-9--7-7-9-9--0-2-4-4--0-2-4-4--7-7-9-9--7-7-9-9--9-9-11-11-9-9-11-11-|
D|--------------------------------------------------------------------------|
A|---------------------------------------------------------------------------|
E|---------------------------------------------------------------------------|

e|---------------------------------------------------------------------------|
B|---------------------------------------------------------------------------|
G|-11-11-12-12-11-11-12-12-11-11-12-12-11-11-12-12-(2x)----------------------|
D|---------------------------------------------------------------------------|
A|---------------------------------------------------------------------------|
E|---------------------------------------------------------------------------|

[Chorus]
    G       Bm  C         Bm      C       Em      D          G
    Pls...   Pretend...  Pls...  Every.. Here..  Happy...   too..
e|--3-------------------------------------7-------5--------------|
B|--3-------7-8-----------7-------8-------8-------7----------8---|
G|--0-------7-0-----------7-------0-------0-------7----------0---|
D|--0-------0-0-----------0-------0-------x-------0--------------|
A|--2-------x-7-----------x-------7-------7----------------------|
E|--3-------7-8-----------7-------8------------------------------|
    
    G                             G
e|------------10--7--------------------------10---7-------------|
B|-------7h8----------10---8-----------7h8-----------10--8------|
G|--7h9---------------------------7h9---------------------------|
D|--------------------------------------------------------------|
A|--------------------------------------------------------------|
E|--------------------------------------------------------------|

Right Speaker Guitar
    G        C           Bm      C       Em      D          G
    Pls...   Pretend...  Pls...  Every.. Here..  Happy...   too..
e|---------------------------------------0-------0---------------|
B|--12-----7-8-----------7-------8-------12------0----------12---|
G|--12-----7-9-----------7-------9-------12------11---------12---|
D|--12-----9-10----------9-------10------x-------12---------12---|
A|--10-----9-10----------9-------10------x-------12---------10---|
E|---------7-8-----------7-------8-------12------10--------------|

[Outro]
Badap...
Right Speaker Guitar(do chorus chords)

Right Speaker Guitar
    G        C           Bm      C       Em      D          G
e|---------------------------------------0-------0---------------|
B|--12-------8-----------7-------8-------0-------0----------12---|
G|--12-------9-----------7-------9-------12------11---------12---|
D|--12-------10----------0-------10------12------12---------12---|
D|--12-------10----------9-------10------12------12---------12---||
E|-----------8-----------7-------8-------12------10--------------|

Left Speaker Guitar
e|------------10--7--------------------------10---7-------------|
B|-------7h8----------10---8-----------7h8-----------10--8------|
G|--7h9---------------------------7h9---------------------------|
D|--------------------------------------------------------------|
A|--------------------------------------------------------------|
E|--------------------------------------------------------------|

e|------------10--8---7---------------------10--8-7-------------|
B|-------7h8-------------8------------7h8-------------8---------|
G|--7h9---------------------------7h9---------------------------|
D|--------------------------------------------------------------|
A|--------------------------------------------------------------|
E|--------------------------------------------------------------|

e|------------10--7--------------------------10-----7-----------|
B|-------7h8----------10---8-----------7h8-------10----8--------|
G|--7h9---------------------------7h9---------------------------|
D|--------------------------------------------------------------|
A|--------------------------------------------------------------|
E|--------------------------------------------------------------|

e|------------10--7--------------------------10-----7-----------|
B|-------7h8----------10---8-----------7h8-------10----8--------|
G|--7h9---------------------------7h9---------------------------|
D|--------------------------------------------------------------|(end)
A|--------------------------------------------------------------|
E|--------------------------------------------------------------|

6.      "26"

[Intro]
Acoustic Guitar [0:00]
e|----------------------------------------------------------------------------|
B|------7-----7--------7------------3-----3--------3--------------------------|
G|---0-----0-------0-------0-----0-----0-------0-------0----------------------|(x2)
D|------7-----7------7-------7\-----4-----4------4-------4/-------------------|
A|---5-----5-----5-------5-------------------2-------2------------------------|
E|-------------------------------3-----3--------------------------------------|
                *Fingerpicked acoustic

[Verse 1]
Acoustic Guitar [0:10]
e|----------------------------------------------------------------------------|
B|------7-----7--------7------------3-----3--------3--------------------------|
G|---0-----0-------0-------0-----0-----0-------0-------0----------------------|(x4)
D|------7-----7------7-------7\-----4-----4------4-------4/-------------------|
A|---5-----5-----5-------5-------------------2-------2------------------------|
E|-------------------------------3-----3--------------------------------------|

[Pre-Chorus 1]
Acoustic Guitar [0:32]
e|----------------------------------------------------------------------------|
B|------5-----5--------5------------3-----3--------3--------------------------|
G|---0-----0-------0-------0-----0-----0-------0-------0----------------------|
D|------7-----7------7-------7\-----4-----4------4-------4/-------------------|
A|---4-----4-----4-------4----------------------------------------------------|
E|-------------------------------3-----3-----3-------3------------------------|

Acoustic Guitar [0:37]
e|----------------------------------------------------------------------------|
B|------5-----5--------5------------3-----3-----3-----3-----------------------|
G|---0-----0-------0-------0-----0-----0-----0-----0--------------------------|
D|------7-----7------7-------7\-----4-----4-----4-----4-----------------------|
A|---4-----4-----4-------4----------------------------------------------------|
E|-------------------------------3-----3-----3-----3--------------------------|

Acoustic Guitar [0:42]
e|----------------------------------------------------------------------------|
B|------3-----3-----3-----3-----3-----3-----3-----3---------------------------|
G|---0-----0-----0-----0-----0-----0-----0-----0-----0------------------------|
D|------4-----4-----4-----4-----4-----4-----4-----4---------------------------|
A|---------------2-----0------------------------------------------------------|
E|---3-----3-----------------0-----0-----0-----0-----0------------------------|

[Chorus 1]
Acoustic Guitar [0:50]
e|----------------------------------------------------------------------------|
B|------12----12-------12-----------10----10-------10-------------------------|
G|---11----11------11------11----11----11------11------11---------------------|(x3)
D|------12----12-----12------12-----11----11-----11------11-------------------|
A|---10----10----10------10------0-----0-----0-------0------------------------|
E|----------------------------------------------------------------------------|

Electric Guitar [0:50]
e|----------------------------------------------------------------------------|
B|------15--------------------------15----------------------------------------|
G|---------------14--------------------------14-------------------------------|(x3)
D|---16----16-17----17-16-----16-16----16-17----16-17-------------------------|
A|----------------------------------------------------------------------------|
E|----------------------------------------------------------------------------|

Acoustic Guitar [1:06]
e|----------------------------------------------------------------------------|
B|------12----12-------12-----------10----10--10------------------------------|
G|---11----11------11------11----11----11-----11------------------------------|
D|------12----12-----12------12-----11----11--11------------------------------|
A|---10----10----10------10------0-----0------0-------------------------------|
E|----------------------------------------------------------------------------|

Electric Guitar [1:06]
e|----------------------------------------------------------------------------|
B|------15--------------------------15----------------------------------------|
G|---------------14---------------------------14------------------------------|
D|---16----16-17----17-16-----16-16----16-17----------------------------------|
A|----------------------------------------------------------------------------|
E|----------------------------------------------------------------------------|

[Verse 2]
Acoustic Guitar [1:12]
e|----------------------------------------------------------------------------|
B|------7-----7--------7------------3-----3--------3--------------------------|
G|---0-----0-------0-------0-----0-----0-------0-------0----------------------|(x4)
D|------7-----7------7-------7\-----4-----4------4-------4/-------------------|
A|---5-----5-----5-------5-------------------2-------2------------------------|
E|-------------------------------3-----3--------------------------------------|

Electric Guitar [1:12]
e|----------------------------------------------------------------------------------------------14-----|
B|---------15----------15----------14-15-------15----------15----------15----------14-15----------15---|
G|------14----14----14----14----14----------14----14----14----14----14----14----14-----------14--------|(x2)
D|---16----------16----------16----------16----------16----------16----------16-----------16-----------|
A|-----------------------------------------------------------------------------------------------------|
E|-----------------------------------------------------------------------------------------------------|

[Pre-Chorus 2]
Acoustic Guitar [1:33]
e|----------------------------------------------------------------------------|
B|------5-----5--------5------------3-----3--------3--------------------------|
G|---0-----0-------0-------0-----0-----0-------0-------0----------------------|
D|------7-----7------7-------7\-----4-----4------4-------4/-------------------|
A|---4-----4-----4-------4----------------------------------------------------|
E|-------------------------------3-----3-----3-------3------------------------|

Electric Guitar [1:33]
e|----------------------------------------------------------------------------|
B|---------14----------14----------15----------15-----------------------------|
G|------14----14----14----14----14----14----14----14--------------------------|
D|---14----------14----------16----------16-----------------------------------|
A|----------------------------------------------------------------------------|
E|----------------------------------------------------------------------------|

Acoustic Guitar [1:38]
e|----------------------------------------------------------------------------|
B|------5-----5--------5------------3-----3-----3-----3-----------------------|
G|---0-----0-------0-------0-----0-----0-----0-----0--------------------------|
D|------7-----7------7-------7\-----4-----4-----4-----4-----------------------|
A|---4-----4-----4-------4----------------------------------------------------|
E|-------------------------------3-----3-----3-----3--------------------------|

Electric Guitar [1:38]
e|----------------------------------------------------------------------------|
B|---------14----------14----------15----------15-----------------------------|
G|------14----14----14----14----14----14----14----14--------------------------|
D|---14----------14----------16----------16-----------------------------------|
A|----------------------------------------------------------------------------|
E|----------------------------------------------------------------------------|

Acoustic Guitar [1:44]
e|----------------------------------------------------------------------------|
B|------3-----3-----3-----3-----3-----3-----3-----3---------------------------|
G|---0-----0-----0-----0-----0-----0-----0-----0-----0------------------------|
D|------4-----4-----4-----4-----4-----4-----4-----4---------------------------|
A|---------------2-----0------------------------------------------------------|
E|---3-----3-----------------0-----0-----0-----0-----0------------------------|

Electric Guitar [1:44]
e|------------14--------------------------------------------------------------|
B|---------15-------15----15--------------------------------------------------|
G|------14--------------------------------------------------------------------|
D|---16----------16----14----14-----------------------------------------------|
A|----------------------------------------------------------------------------|
E|----------------------------------------------------------------------------|

[Chorus 2]
Acoustic Guitar [1:52]
e|----------------------------------------------------------------------------|
B|------12----12-------12-----------10----10-------10-------------------------|
G|---11----11------11------11----11----11------11------11---------------------|(x3)
D|------12----12-----12------12-----11----11-----11------11-------------------|
A|---10----10----10------10------0-----0-----0-------0------------------------|
E|----------------------------------------------------------------------------|

Electric Guitar [1:52]
e|----------------------------------------------------------------------------|
B|------15--------------------------15----------------------------------------|
G|---------------14--------------------------14-------------------------------|(x3)
D|---16----16-17----17-16-----16-16----16-17----16-17-------------------------|
A|----------------------------------------------------------------------------|
E|----------------------------------------------------------------------------|

Acoustic Guitar [1:06]
e|----------------------------------------------------------------------------|
B|------12----12-------12-----------10----10--10------------------------------|
G|---11----11------11------11----11----11-----11------------------------------|
D|------12----12-----12------12-----11----11--11------------------------------|
A|---10----10----10------10------0-----0------0-------------------------------|
E|----------------------------------------------------------------------------|

Electric Guitar [1:06]
e|----------------------------------------------------------------------------|
B|------15--------------------------15----------------------------------------|
G|---------------14---------------------------14------------------------------|
D|---16----16-17----17-16-----16-16----16-17----------------------------------|
A|----------------------------------------------------------------------------|
E|----------------------------------------------------------------------------|

[Bridge]
12 String Acoustic Guitar [2:13]
e|----------------------------------------------------------------------------|
B|------3-----3--------3------------2-----2------2----------------------------|
G|---0-----0-------0-------0-----2-----2-----------2-----2--------------------|(x3)
D|------4-----4------4-------4------2-----2----2-------2----------------------|
A|-------------------------------0-----0-----0-------0------------------------|
E|---0-----0-----0-------0----------------------------------------------------|

Electric Guitar [2:13]
e|----------------------------------------------------------------------------|
B|---8-----8------------------------------------------------------------------|
G|------11----11-----------------7-----6--------------------------------------|(x3)
D|----------------------------------9-----9-----------------------------------|
A|----------------------------------------------------------------------------|
E|----------------------------------------------------------------------------|

12 String Acoustic Guitar [2:29]
e|----------------------------------------------------------------------------|
B|------3-----3--------3------------2-----2-----2-----2-----2-----2-----------|
G|---0-----0-------0-------0-----2-----2-----2-----2-----2-----2-----2--------|
D|------4-----4------4-------4------2-----2-----2-----2-----2-----2-----------|
A|-------------------------------0-----0-----0-----0-----0-----0-----0--------|
E|---0-----0-----0-------0----------------------------------------------------|

Electric Guitar [2:29]
e|----------------------------------------------------------------------------|
B|---8-----8---------------------7-----7-----5-----5-----7-----7\----5--------|
G|------11----11--------------------7-----7-----6-----6-----7-----------------|
D|----------------------------------------------------------------------------|
A|----------------------------------------------------------------------------|
E|----------------------------------------------------------------------------|

Acoustic Chorus (Half Chorus)
Acoustic Guitar [2:38]
e|------0-----0---------------------0-----0-----------------------------------|
B|---------------------12--------14----14-----------7-------------------------|
G|---11----11------11------11-------------------6-------6---------------------|
D|------12----12-----12------12--0-----0----------7-------7-------------------|
A|---10----10----10------10---------12----12--0-------0-----------------------|
E|----------------------------------------------------------------------------|
*track is doubled with a regular 6 string in the mix

Acoustic Guitar [2:44]
e|---3-----5------------------------------------------------------------------|
B|------3-----3//10---10------------10----10----10----------------------------|
G|-------------------------7----------------------9---------------------------|
D|------0-----0--------------0------11----11--------11------------------------|
A|------------------9------------0-----0------0-------------------------------|
E|---3-----3------------------------------------------------------------------|

[Chorus 3]
Acoustic Guitar [2:49]
e|----------------------------------------------------------------------------|
B|------12----12-------12-----------10----10-------10-------------------------|
G|---11----11------11------11----11----11------11------11---------------------|(x3)
D|------12----12-----12------12-----11----11-----11------11-------------------|
A|---10----10----10------10------0-----0-----0-------0------------------------|
E|----------------------------------------------------------------------------|

Electric Guitar [2:49]
e|----------------------------------------------------------------------------|
B|------15--------------------------15----------------------------------------|
G|---------------14--------------------------14-------------------------------|(x3)
D|---16----16-17----17-16-----16-16----16-17----16-17-------------------------|
A|----------------------------------------------------------------------------|
E|----------------------------------------------------------------------------|

Acoustic Guitar [3:05]
e|----------------------------------------------------------------------------|
B|------12----12-------12-----------10----10--10------------------------------|
G|---11----11------11------11----11----11-----11------------------------------|
D|------12----12-----12------12-----11----11--11------------------------------|
A|---10----10----10------10------0-----0------0-------------------------------|
E|----------------------------------------------------------------------------|

Electric Guitar [3:05]
e|----------------------------------------------------------------------------|
B|------15--------------------------15----------------------------------------|
G|---------------14---------------------------14------------------------------|
D|---16----16-17----17-16-----16-16----16-17----------------------------------|
A|----------------------------------------------------------------------------|
E|----------------------------------------------------------------------------|

[Outro]
12 String Acoustic Guitar [3:12]
e|-----------------------------------------------------------------------------------------------------|
B|------3-----3-----3-----3-----3-----3-----3-----3-----3-----3-----3-----3-----3------3-----3-----3---|
G|---0-----0-----0-----0-----0-----0-----0-----0-----0-----0-----0-----0-----0----0------0-----0-----0-|
D|------4-----4-----4-----4-----4-----4-----4-----4-----4-----4-----4-----4-----4------4-----4---------|
A|---2-----0-----------------------------------------2-----0-------------------------------------------|
E|---------------0-----0-----0-----0-----0-----0-----------------0-----0-----0------0------0-----0-----|
 
12 String Acoustic Guitar [3:22]
e|----------------------------------------------------------------------------|
B|------3-----3-----3-----3------3-----3-----3-----3----3-----3--------3------|
G|---0-----0-----0-----0-----0-----------------------0-----0---------0--------|
D|------4-----4-----4-----4----4-----4-----4-----4------4-----4----4----------|
A|---2-----0-----------------------------------------2-----0------------------|
E|---------------0-----0-----0-----0-----------------------------0------------|
 
8.      "Grudges"

[Intro]
   D                        G                       A                       G
e|-------5--5-----5----5--|-----------------------|-------5-------5-------|-----------------------|
B|-------------7----------|----8----8-------8-----|------------7-------7--|---3-/5--3-/7----------|
G|------------------------|------------7----------|-----------------------|-----------------7-----|
D|-0--0-------------------|-5---------------------|-7--7------------------|-----------------------|
A|------------------------|-----------------------|-----------------------|-----------------------|
E|------------------------|-----------------------|-----------------------|-----------------------|

[Verse]
   play with heavy reverb and slapback delay
e|------------------------|-----------------------|-----------------------|----------5-----5--5--|
B|----------7-----7-------|----------7-----7------|----------7-----7------|----------7-----7--7--|
G|----------7-----7-------|----------7-----7------|----------7-----7------|----------7-----7--7--|
D|------------------------|-----------------------|-----------------------|----------------------|
A|------------------------|-----------------------|-----------------------|----------------------|
E|------------------------|-----------------------|-----------------------|----------------------|

e|------------------------|-----------------------|-----------------------|----------------------|
B|----------7-----7-------|----------7-----7------|----------7-----8------|----------10----------|
G|----------7-----7-------|----------7-----7------|----------7-----9------|----------11----------|
D|------------------------|-----------------------|-----------------------|----------------------|
A|------------------------|-----------------------|-----------------------|----------------------|
E|------------------------|-----------------------|-----------------------|----------------------|

[Pre-chorus]
e|---------10--10----------10--10---|
B|---------10--10----------10--10---|
G|-11--11----------11--11-----------| (play 7x)
D|-12--12----------12--12-----------|
A|----------------------------------|
E|----------------------------------|

e|---------10--10-------------------|
B|---------10--10-------------------|
G|-11--11---------------------------|
D|-12--12---------------------------|
A|----------------------------------|
E|----------------------------------|
                           "Whoo!"

[Chorus]
   D                        G                       A                       G
e|-------5--5-----5----5--|-----------------------|-------5-------5-------|--------5--------------|
B|-------------7----------|----8----8-------8-----|------------7-------7--|---5-------7-----------|
G|------------------------|------------7----------|-----------------------|-----------------7-----|
D|-0--0-------------------|-5---------------------|-7--7------------------|-----------------------|
A|------------------------|-----------------------|-----------------------|-----------------------|
E|------------------------|-----------------------|-----------------------|-----------------------|
   
e|-------5--5-----5----5--|-----------------------|-------5-------5-------|-----------------------|
B|-------------7----------|----8----8-------8-----|------------7-------7--|---3-/5--3-/7----------|
G|------------------------|------------7----------|-----------------------|-----------------7-----|
D|-0--0-------------------|-5---------------------|-5--5------------------|-----------------------|
A|------------------------|-----------------------|-----------------------|-----------------------|
E|------------------------|-----------------------|-----------------------|-----------------------|

[Verse 2]
e|------/5--------------|-----------------------|-------9-------------|---10-------------14TP-|
B|----------------------|-----7p5---------------|---------------------|---------10------------|
G|----------------------|----------7------------|---------------------|------11---------------|
D|----------------------|-----------------------|---------------------|-----------------------|
A|----------------------|-----------------------|---------------------|-----------------------|
E|----------------------|-----------------------|---------------------|-----------------------|

e|------/5--------------|-----7-----------------|------/9-------------|-------12-10-----------|
B|----------------------|-----------------------|---------------------|----10-----------------|
G|----------------------|--------6--7-----------|---------------------|-----------------------|
D|----------------------|-----------------------|---------------------|-----------------------|
A|----------------------|-----------------------|---------------------|-----------------------|
E|----------------------|-----------------------|---------------------|-----------------------|

[Pre-chorus 2]
e|-----------------------|-----------------------|-----------------------|-----------------------|
B|-----------------------|-----------------------|-------2----------2----|-------2----------2----|
G|-------0----------0----|-4--4--0----4--4--0----|-2--2-------2--2-------|-2--2-------2--2-------|
D|-4--4-------4--4-------|-----------------------|-----------------------|-----------------------|
A|-----------------------|-----------------------|-----------------------|-----------------------|
E|-----------------------|-----------------------|-----------------------|-----------------------|

e|-----------------------|-----------------------|-----------------------|-------5---------------|
B|-----------------------|-------3----------3----|-------3----------3----|----3------------------|
G|-------0----------0----|----0----------0-------|----0----------0-------|-4---------------------|
D|-4--4-------4--4-------|-2----------2----------|-4----------4----------|-----------------------|
A|-----------------------|-----------------------|-----------------------|-----------------------|
E|-----------------------|-----------------------|-----------------------|-----------------------|

[Chorus 2]
   D                        G                       A                       G
e|-------5--5-----5----5--|-----------------------|-------5-------5-------|-----------------------|
B|-------------7----------|----8----8-------8-----|------------7-------7--|----5-----------7------|
G|------------------------|------------7----------|-----------------------|-----------7-----------|
D|-0--0-------------------|-5---------------------|-7--7------------------|-7---------------------|
A|------------------------|-----------------------|-----------------------|-----------------------|
E|------------------------|-----------------------|-----------------------|-----------------------|
   
e|-------5--5-----5----5--|-----------------------|-------5-------5-------|-----------------------|
B|-------------7----------|----8----8-------8-----|------------7-------7--|------5h7--------7-----|
G|------------------------|------------7----------|-----------------------|-----------7-----------|
D|-0--0-------------------|-5---------------------|-5--5------------------|-7--7------------------|
A|------------------------|-----------------------|-----------------------|-----------------------|
E|------------------------|-----------------------|-----------------------|-----------------------|

   C#m                      D                       C#m/E                   D
e|------------------------|-----------------------|-----------------------|-5----7---------5------|
B|-------5-------5--------|----7----7-------7-----|-------5--------5------|-----------5-----------|
G|-6--6-------6-----------|-7----------7----------|-6--6--------6---------|-----------------------|
D|------------------------|-----------------------|-----------------------|-----------------------|
A|------------------------|-----------------------|-----------------------|-----------------------|
E|------------------------|-----------------------|-----------------------|-----------------------|
   
e|-------5--5-----5----5--|-----------------------|-------5-------5-------|---5-------------------|
B|-------------7----------|----8----8-------8-----|------------7-------7--|------5\3---/7---------|
G|------------------------|------------7----------|-----------------------|-----------------7-----|
D|-0--0-------------------|-5---------------------|-5--5------------------|-----------------------|
A|------------------------|-----------------------|-----------------------|-----------------------|
E|------------------------|-----------------------|-----------------------|-----------------------|

[Bridge]
e|------------------------------|
B|--7--7------------------------|
G|--7--7------------------------|   (play 2x)
D|------------------------------|
A|------------------------------|
E|------------------------------|

e|---------------------------|
B|--7--7--7--7--7--7-----7---|
G|--7--7--7--7--7--7-----7---|   (play 8x)
D|---------------------------|
A|---------------------------|
E|---------------------------|
   "Why did it take so long?"


[Chorus 2]
   D                        G                       A                       G
e|-------5--5-----5----5--|-----------------------|-------5-------5-------|-----------------------|
B|-------------7----------|----8----8-------8-----|------------7-------7--|----5-----------7------|
G|------------------------|------------7----------|-----------------------|-----------7-----------|
D|-0--0-------------------|-5---------------------|-7--7------------------|-7---------------------|
A|------------------------|-----------------------|-----------------------|-----------------------|
E|------------------------|-----------------------|-----------------------|-----------------------|

e|-------5--5-----5----5--|-----------------------|-------5-------5-------|-----------------------|
B|-------------7----------|----8----8-------8-----|------------7-------7--|---5--5--5-------7-----|
G|------------------------|------------7----------|-----------------------|------------7----------|
D|-0--0-------------------|-5---------------------|-5--5------------------|-----------------------|
A|------------------------|-----------------------|-----------------------|-----------------------|
E|------------------------|-----------------------|-----------------------|-----------------------|

   C#m                      D                       C#m/E                   D
e|------------------------|-----------------------|-----------------------|-5----7---------5------|
B|-------5-------5--------|----7----7-------7-----|-------5--------5------|-----------5-----------|
G|-6--6-------6-----------|-7----------7----------|-6--6--------6---------|-----------------------|
D|------------------------|-----------------------|-----------------------|-----------------------|
A|------------------------|-----------------------|-----------------------|-----------------------|
E|------------------------|-----------------------|-----------------------|-----------------------|
   
e|-------5--5-----5----5--|-----------------------|-------5-------5-------|---5-------------------|
B|-------------7----------|----8----8-------8-----|------------7-------7--|------5\3---/7---------|
G|------------------------|------------7----------|-----------------------|-----------------7-----|
D|-0--0-------------------|-5---------------------|-5--5------------------|-----------------------|
A|------------------------|-----------------------|-----------------------|-----------------------|
E|------------------------|-----------------------|-----------------------|-----------------------|

[Outro]
e|------/5--------------|-----------------------|-------9-------------|---10------------------|
B|----------------------|-----7p5---------------|---------------------|---------10------------|
G|----------------------|----------7------------|---------------------|------11---------------|
D|----------------------|-----------------------|---------------------|-----------------------|
A|----------------------|-----------------------|---------------------|-----------------------|
E|----------------------|-----------------------|---------------------|-----------------------|

e|------/5--------------|-----7-----------------|-------9-------------|-------12-10-----------|
B|----------------------|-----------------------|---------------------|----10-----------------|
G|----------------------|--------6--7-----------|---------------------|-----------------------|
D|----------------------|-----------------------|---------------------|-----------------------|
A|----------------------|-----------------------|---------------------|-----------------------|
E|----------------------|-----------------------|---------------------|-----------------------|

e|------/5--------------|-----7-----------------|-------9---10p9-10p9-|-----------------------|
B|----------------------|-----------------------|---------------------|------7----------------|
G|----------------------|--------6--7-----------|---------------------|------------7----------|
D|----------------------|-----------------------|---------------------|-----------------------|
A|----------------------|-----------------------|---------------------|-----------------------|
E|----------------------|-----------------------|---------------------|-----------------------|

e|-------5------5---5---|-----7-----------------|------/9---10p9------|-----------------------|
B|----------------------|-----------------------|-----------------10--|-----------------------|
G|----------------------|--------6--7-----------|---------------------|------9p7~-------------|
D|----------------------|-----------------------|---------------------|-----------------------|
A|----------------------|-----------------------|---------------------|-----------------------|
E|----------------------|-----------------------|---------------------|-----------------------|

9.      "Caught in the Middle"

[Intro]
e|-----------------------------|-----------------------------|
B|--10-12---10-12---5-5---5-5--|--10-12---10-12---5-5---5-5--|
G|---9--9----9--9---5-4---4-4--|---9--9----9--9---5-4---4-4--|
D|--10-10---10-10---3-3---5-5--|--10-10---10-10---3-3---5-5--|
A|-----------------------------|-----------------------------|
E|-----------------------------|-----------------------------|

[Verse]
e|-----------------------------|--------------------------------|
B|--10-12---10-12---5-5---5-5--|--10-12---10--8---5-5---5-5--55-|
G|---9--9----9--9---5-4---4-4--|---9--9----9--9---5-4---4-4--44-|
D|--10-10---10-10---3-3---5-5--|--10-10---10-10---3-3---5-5--55-|
A|-----------------------------|--------------------------------|
E|-----------------------------|--------------------------------|

e|-----------------------------|----------------1212------------|
B|--10-12---10-12---5-5---5-5--|--10-12---10--8-1010--5-5---5-5-|
G|---9--9----9--9---5-4---4-4--|---9--9----9--9-------5-4---4-4-|
D|--10-10---10-10---3-3---5-5--|--10-10---10-10-------3-3---5-5-|
A|-----------------------------|--------------------------------|
E|-----------------------------|--------------------------------|

[Refrain] add delay
e|----------------------------|------------------------------|
B|--10-10---10-10---8-8--8-8--|--10-10---10-10---5-5---3-3---|
G|---9--9----9--9---7-7--7-7--|---9--9----9--9---5-4---4-4---|
D|--10-10---10-10---9-9--9-9--|--10-10---10-10---5-5---5-5---|
A|---8--8----8--8---7-7--7-7--|---8--8----8--8---------------|
E|----------------------------|------------------------------|

[Chorus]
Right Speaker Guitar
e|--12-12---12-12---7-7------10-|-12-12---12-12--12-------------------------|
B|--12-12---13-13---8-8---10-10-|-12-12---13-13--12----------13-12----------|
G|--12-12---x--x----9-9---10-10-|-12-12---x--x---12-12p10h12p------12-12-10-|
D|--10-10---x--x----9-9---10-10-|-10-10---x--x------------------------------|
A|----------12-12---7-7---8--8--|---------12-12-----------------------------|
E|------------------------------|-------------------------------------------|

Left Speaker Guitar
e|------------------------------|-------------------------------------------|
B|------------------------------|-------------------------------------------|
G|-------5---------5------------|------5---------5--------------------------|
D|-----5---5-----5---5----------|----5---5-----5---5------------------------|
A|---3--------------------------|--3----------------------------------------|
E|-----------5-5----------------|----------5-5------------------------------|

Right Speaker Guitar
e|--12-12---12-12---7-7------10-|-12-12---12-12--12-12----------------------|
B|--12-12---13-13---8-8---10-10-|-12-12---13-13--12-12-13-12----------------|
G|--12-12---x--x----9-9---10-10-|-12-12---x--x---12-12------14-12-14-12-----|
D|--10-10---x--x----9-9---10-10-|-10-10---x--x------------------------------|
A|----------12-12---7-7---8--8--|---------12-12-----------------------------|
E|------------------------------|-------------------------------------------|

Left Speaker Guitar
e|------------------------------|-------------------------------------------|
B|-----------------5------------|-------------------------------------------|
G|-------5----------4-----------|------5---------5--------------------------|
D|-----5---5-----5--------------|----5---5-----5---5------------------------|
A|---3--------------------------|--3----------------------------------------|
E|-----------5-5----------------|----------5-5------------------------------|

[Instrumental]
e|-----------------------------|-----------------------------|
B|--10-12---10-12---5-5---5-5--|--10-12---10-12---5-5---5-5--|
G|---9--9----9--9---5-4---4-4--|---9--9----9--9---5-4---4-4--|
D|--10-10---10-10---3-3---5-5--|--10-10---10-10---3-3---5-5--|
A|-----------------------------|-----------------------------|
E|-----------------------------|-----------------------------|

e|---7-------------------------|--7---8----------------------|
B|------8---------8------------|---------8----8--------------|
G|----------9---------9---7----|-----------------9----7------|
D|-----------------------------|-----------------------------|
A|-----------------------------|-----------------------------|
E|-----------------------------|-----------------------------|

[Verse 2]
(Guitar 1 Same)

Right Speaker Guitar
e|----------------12-----------|---------------12------------|
B|----------12h13-----12-------|----------12h13---12---------|
G|-----------------------12----|---------------------12------|
D|-10h12h14-----------------14-|-10h12h14---------------10---|
A|-----------------------------|-----------------------------|
E|-----------------------------|-----------------------------|

 Guitar (right) 01:26
e|-------------------------------------|
B|--10-12---10-12--10--8----x--x--8-8--|
G|---9--9----9--9---9--9----9--9--9-9--|
D|--10-10---10-10--10-10---10-10-1010--|
A|-------------------------------------|
E|-------------------------------------|

e|----------------12-----------|---------------12---------------12--|
B|----------12h13-----12-------|----------12h13------------12h13----|
G|-----------------------12----|------------------------------------|
D|-10h12h14-----------------14-|-10h12h14---------10h12h14----------|
A|-----------------------------|------------------------------------|
E|-----------------------------|------------------------------------|

[Refrain] add delay
e|----------------------------|------------------------------|
B|--10-10---10-10---8-8--8-8--|--10-10---10-10---5-5---3-3---|
G|---9--9----9--9---7-7--7-7--|---9--9----9--9---5-4---4-4---|
D|--10-10---10-10---9-9--9-9--|--10-10---10-10---5-5---5-5---|
A|---8--8----8--8---7-7--7-7--|---8--8----8--8---------------|
E|----------------------------|------------------------------|

[Chorus]
Right Speaker Guitar
e|--12-12---12-12---7-7------10-|-12-12---12-12--12-------------------------|
B|--12-12---13-13---8-8---10-10-|-12-12---13-13--12----------13-12----------|
G|--12-12---x--x----9-9---10-10-|-12-12---x--x---12-12p10h12p------12-12-10-|
D|--10-10---x--x----9-9---10-10-|-10-10---x--x------------------------------|
A|----------12-12---7-7---8--8--|---------12-12-----------------------------|
E|------------------------------|-------------------------------------------|

Left Speaker Guitar
e|------------------------------|-------------------------------------------|
B|------------------------------|-------------------------------------------|
G|-------5---------5------------|------5---------5--------------------------|
D|-----5---5-----5---5----------|----5---5-----5---5------------------------|
A|---3--------------------------|--3----------------------------------------|
E|-----------5-5----------------|----------5-5------------------------------|

Right Speaker Guitar
e|--12-12---12-12---7-7------10-|-12-12---12-12--12-12----------------------|
B|--12-12---13-13---8-8---10-10-|-12-12---13-13--12-12-13-12----------------|
G|--12-12---x--x----9-9---10-10-|-12-12---x--x---12-12------14-12-14-12-----|
D|--10-10---x--x----9-9---10-10-|-10-10---x--x------------------------------|
A|----------12-12---7-7---8--8--|---------12-12-----------------------------|
E|------------------------------|-------------------------------------------|

Left Speaker Guitar
e|------------------------------|-------------------------------------------|
B|-----------------5------------|-------------------------------------------|
G|-------5----------4-----------|------5---------5--------------------------|
D|-----5---5-----5--------------|----5---5-----5---5------------------------|
A|---3--------------------------|--3----------------------------------------|
E|-----------5-5----------------|----------5-5------------------------------|

[Instrumental 2]
e|-------------------12--------|-----------------10------------------|
B|----------12h13-------10-----|----------12h13-----13-12-10---------|
G|-------------------------12--|-----------------------------12-10-9-|
D|-10h12h14--------------------|-10h12h14----------------------------|
A|-----------------------------|-------------------------------------|
E|-----------------------------|-------------------------------------|

[Bridge]
[02:37]
   C               Am             F            F
e|--------------|--------------|------------------------------|
B|--------------|--------------|------------------------------|
G|--------------|--------------|------------------------------|
D|--7-9---7-9---|--7-9---7-9---|--7-9---7-9----7-9---7-9------|(2x)
A|--9-10--9-10--|--9-10--9-10--|--9-10--9-10---9-10--9-10-----|
E|--------------|--------------|------------------------------|

Hayley's part
e|-------8-7--------5---------5------|---------8-7--------5---------5---------|
B|-----5-----8-5--8----5-8--8---5----|-------5-----8-5--8----5-8--8---5-------|
G|-5-7----------------------------7--|---5-7----------------------------7-----|
D|-----------------------------------|----------------------------------------|
A|-----------------------------------|----------------------------------------|
E|-----------------------------------|----------------------------------------|

(Last Chorus)
Right Speaker Guitar
e|--12-12---12-12---7-7------10-|-12-12---12-12--12-------------------------|
B|--12-12---13-13---8-8---10-10-|-12-12---13-13--12----------13-12----------|
G|--12-12---x--x----9-9---10-10-|-12-12---x--x---12-12p10h12p------12-12-10-|
D|--10-10---x--x----9-9---10-10-|-10-10---x--x------------------------------|
A|----------12-12---7-7---8--8--|---------12-12-----------------------------|
E|------------------------------|-------------------------------------------|

Left Speaker Guitar
e|----------------------7-7------10-|--------------------/12-10--10-8-10-8--/12-10--10-8-10-8--|
B|----------------------8-8---10-10-|----------------------------------------------------------|
G|-------5---------5----9-9---10-10-|------5---------5-----------------------------------------|
D|-----5---5-----5---5--9-9---10-10-|----5---5-----5---5---------------------------------------|
A|---3------------------7-7---8--8--|--3-------------------------------------------------------|
E|-----------5-5--------------------|----------5-5---------------------------------------------|

Right Speaker Guitar
e|--12-12---12-12---7-7------10-|-12-12---12-12--12-12----------------------|
B|--12-12---13-13---8-8---10-10-|-12-12---13-13--12-12-13-12----------------|
G|--12-12---x--x----9-9---10-10-|-12-12---x--x---12-12------14-12-14-12-----|
D|--10-10---x--x----9-9---10-10-|-10-10---x--x------------------------------|
A|----------12-12---7-7---8--8--|---------12-12-----------------------------|
E|------------------------------|-------------------------------------------|

Left Speaker Guitar
e|----------------------7-7------10-|--------------------/12-10--10-8-10-8--/12-10--10-8-10-8--|
B|----------------------8-8---10-10-|----------------------------------------------------------|
G|-------5---------5----9-9---10-10-|------5---------5-----------------------------------------|
D|-----5---5-----5---5--9-9---10-10-|----5---5-----5---5---------------------------------------|
A|---3------------------7-7---8--8--|--3-------------------------------------------------------|
E|-----------5-5--------------------|----------5-5---------------------------------------------|

[Outro]
e|-----------------------------|--------------------------------|
B|--10-12---10-12---5-5---5-5--|--10-10/---10-10/---5-5---5555--|
G|---9--9----9--9---5-4---4-4--|---9--9/----9--9/---5-4---4444--|
D|--10-10---10-10---3-3---5-5--|--10--9/---10--9/---3-3---5555--|
A|-----------------------------|-----10/------10/---------------|
E|-----------------------------|--------------------------------|

10.     "Idle Worship"

[Intro]
D# D/Bb

[Verse 1]
D#
Standing here like I'm supposed to say something
D/Bb
Don't hold your breath, I never said I'd save you, honey
G#
And I don't want your money. If I was you, I'd run from me
   Gm                            A#
or rip me open. You'll see you're not the only one who's hopeless.
D#
Be sure to put your faith in something more
D/Bb
I'm just a girl and you're not as alone as you feel
G#
We all got problems, don't we? We all need heroes, don't we?
Gm                               A#
But rest assured, there's not a single person here who's worthy

[Pre-Chorus]
D#           D/Bb   Gm
La, la la la la la la
Don't let me let you down

[Chorus]
G#  D#            A#  D#           G#
   Hey baby, I'm not your superhuman 
D#                      A#
And if that's what you want
  D#                G#
I hate to let you down
  D#               A#
I got your hopes up
  D#              G# 
Now I got you hoping
    D#           A#    D#
That I'm gonna be the one to let you down

[Verse 2]
D#
Oh, it's such a long and awful lonely fall
D/Bb
Down from this pedestal that you keep putting me on
G#
What if I fall on my face? What if I make a mistake?
Gm                       A#
If it's okay a little grace would be appreciated
D#
Remember how we used to like ourselves?
D/Bb
What little light that's left, we need to keep it sacred
G#
I know that you're afraid to let all the dark escape ya
Gm                         A#               
But we can let the light illuminate these hopeless places

[Pre-Chorus]
D#           D/Bb   Gm
La, la la la la la la
             G#   A#   
Just let me let you down

[Chorus]
G#  D#            A#  D#           G#
   Hey baby, I'm not your superhuman 
D#                      A#
And if that's what you want
  D#                G#
I hate to let you down
  D#               A#
I got your hopes up
  D#              G# 
Now I got you hoping
    D#           A#    D#
That I'm gonna be the one to let you down

[Bridge]
Cm     A#        D#    G#   
La la la la la la
Cm     A#        D#    G# 
La la la la la la
Cm                   A#
Oh, no, I ain't your hero
D#                       G#            
You're wasting all your faith on me
Cm                   A#
Oh, no, I know where this goes
D#                            G#
They can say, they say, your savior doesn't look a thing like me

[Pre-Chorus]
D#         D/Bb Cm Gm
La, la la la la la la
Don't let me let you down

[Chorus]
G#  D#            A#  D#           G#
   Hey baby, I'm not your superhuman 
D#                      A#
And if that's what you want
  D#                G#
I hate to let you down
  D#               A#
I got your hopes up
  D#              G# 
Now I got you hoping
    D#           A#    D#
That I'm gonna be the one to let you down
G#  D#            A#  D#           G#
   Hey baby, I'm not your superhuman 
D#                      A#
And if that's what you want
  D#                G#
I hate to let you down
  D#               A#
I got your hopes up
  D#              G# 
Now I got you hoping
    D#           A#    D#
That I'm gonna be the one to let you down

11.     "No Friend"

Cm G# Gm ( all througout)

These old letters from years ago
I felt it was leading to a
[...]
When I wrote this [...] I may have been finally able to address how it feels

Another brick-red room,
Another black-top town,
Another misspelled band burning their own houses down,
Another pine-box tune to fill the cemetery day
Another star, a touch of orange over purgatory gray,

Another thorny field to scatter fruitless seed,
Another song that runs too long god knows no one needs
More misguided ghosts, more transparent hands
To drop a nickel in our basket and we'll do our riot!

Dance beneath another burning sky,
Behind our painted lips
In scores of catatonic smile-covered ankle-bitten ships
So throw your pedestal of stone in the forgetful sea
As protection from the paper-thin perfection
You project on me

When this repetition ends behind the window shades,
A semi-conscious sorrow sleeping in the bed I've made,
That most unrestful bed, that most original of sins
And you'll say that's what I get when I let ambition win again

I'd hate to let you down
So I'll let the waters rise
And drown my dull reflection
In the naïve expectation in your eyes
Back in a cast bit-part,
Back when I felt most free,
I had a butcher's heart and no one thought they knew me

So before the regiment resumes,
Before the dreaded sun appears,
My driver's waiting
So let's make one point crystal clear:

You see a flood-lit form,
I see a shirt design,
I'm no savior of yours
And you're no friend of mine.

You're no friend of mine
You're no friend of mine
I'm no savior of yours and you're no friend of mine

You see a flood-lit form
I see a shirt design
I'm no savior of yours
And you're no friend of mine

I see myself in the reflection of people's eyes
Realising what they see may not be even close to the image I see in myself
And I hate I might actually be more afraid
[...] I feel like they know the story
I saw a bear floating in the river and thought it was a fur coat
Twelve years ago I stood on the shore
Jumped in and grabbed the coat
And the river is rushing toward a waterfall
And my friend stood at the shore and shouted to let go of the coat and swim back to land
I let go of the coat but the coat won't let go of me
In any case please let me know if there's more I can give you
If nothing comes of it, then just know we are grateful

12.     "Tell Me How"

[Intro]

       BbM7    C
       BbM7    Am7
       F     Am7
       F
[Verse]
          C                 BbM7
I can't call you a stranger
              C          BbM7
But I can't call you
               Am7               F
I know you think that I erased you
            Am7                 F
You may hate me but I can't hate you
                    C
And I won't replace you

[Chorus]
BbM7                              C
Tell me how to feel about you now
BbM7
Tell me how to feel about you now
 Am7    F
 Oh,     let me know
 Am7                    F    
Do I suffocate or let go?

[Verse 2]
                              BbM7
Think I'm tired of getting over it
       C                  BbM7
Just starting something new again
             Am7          F
I'm getting sick of the beginnings
    Am7     F
And always coming to your defences
              C                     BbM7
I guess it's good to get it off my chest
             C              BbM7
I guess I can't believe I haven't yet
 Am7                       F
You know I got my own convictions
Am7                          F
And they're stronger than any addiction
     ( C)
But no one's winning

Taylor
Add Delay , Reverb
e|--10------8------10-------------8-------------8-------8--------------------|
B|--10------8------10------8------10-----10-----10------8--------------------|
G|--10------9------10------9------10-----9------10------9--------------------|
D|-------------------------10------------10----------------------------------|
A|---------------------------------------------------------------------------|
E|---------------------------------------------------------------------------|

e|--10------8------10-------------8-------------8-------------8---------8----|
B|--10------8------10------8------10-----10-----10--------10--------10-------|
G|--10------9------10------9------10-----9------10-----12--------12----------|
D|-------------------------10------------10----------------------------------|
A|---------------------------------------------------------------------------|
E|---------------------------------------------------------------------------|

[Chorus 2]
BbM7                             C
Tell me how to feel about you now
BbM7
Tell me how to feel about you now
 Am7    F
 Oh,     let me know
 Am7                    F    (C)
Do I suffocate or let go?

Taylor - palm muted -do this 2 times
e|-------5-5-----5---|-------5-5-----5----|-------5-5-----5---|-------5-5-----5----|
B|-6-6-6-----6-6---6-|-6-6-6-----6-6---6--|-6-6-6-----6-6---6-|-6-6-6-----6-6---6--|
G|-------------------|--------------------|-------------------|--------------------|
D|-------------------|--------------------|-------------------|--------------------|
A|-------------------|--------------------|-------------------|--------------------|
E|-------------------|--------------------|-------------------|--------------------|

e|-------------------|--------------------|-------------------|--------------------|
B|-------5-5-----6---|-------6-6-----6----|-------5-5-----6---|-------6-6-----6-5--|
G|-5-5-5-----5-5---5-|-5-5-5-----5-5---5--|-5-5-5-----5-5---5-|-5-5-5-----5-5------|
D|-------------------|--------------------|-------------------|--------------------|
A|-------------------|--------------------|-------------------|--------------------|
E|-------------------|--------------------|-------------------|--------------------|

[Interlude]  
Gm Dm-C  Am (2x)

[keys]
e|--5-------------------------------|---5-------------------------------------|
B|-----6--8---------6--5------------|------6--8---------6--5--6---3-----------|
G|-----------7----5-------7--5--3---|------------7---5---------------3--------|
D|----------------------------------|-----------------------------------------|
A|----------------------------------|-----------------------------------------|
E|----------------------------------|-----------------------------------------|

                            Gm
You keep me up with your silence
Dm                       C
Take me down with your quiet
  Am                      Gm
Of all the weapons you fight with
    Dm                     C
Your silence is the most violent

(DO Chorus 2x)
e|-------------------|--------------------|-------------------|--------------------|
B|-------------------|--------------------|-------------------|--------------------|
G|-------------------|--------------------|-------------------|--------------------|
D|-------------------|--------------------|-------------------|--------------------|
A|-------------------|--------------------|-------------------|--------------------|
E|-------------------|--------------------|-------------------|--------------------|

e|-------------------|--------------------|-------------------|--------------------|
B|-------5-5-----6---|-------6-6-----6----|-------5-5-----6---|-------6-6-----6-5--|
G|-5-5-5-----5-5---5-|-5-5-5-----5-5---5--|-5-5-5-----5-5---5-|-5-5-5-----5-5------|
D|-------------------|--------------------|-------------------|--------------------|
A|-------------------|--------------------|-------------------|--------------------|
E|-------------------|--------------------|-------------------|--------------------|

e|-------5-5-----5---|-------5-5-----5----|-------5-5-----5---|-------5-5-----5----|
B|-6-6-6-----6-6---6-|-6-6-6-----6-6---6--|-6-6-6-----6-6---6-|-6-6-6-----6-6---6--|
G|-------------------|--------------------|-------------------|--------------------|
D|-------------------|--------------------|-------------------|--------------------|
A|-------------------|--------------------|-------------------|--------------------|
E|-------------------|--------------------|-------------------|--------------------|

e|-------------------|--------------------|-------------------|--------------------|
B|-------5-5-----6---|-------6-6-----6----|-------5-5-----6---|-------6-6-----6-5--|
G|-5-5-5-----5-5---5-|-5-5-5-----5-5---5--|-5-5-5-----5-5---5-|-5-5-5-----5-5------|
D|-------------------|--------------------|-------------------|--------------------|
A|-------------------|--------------------|-------------------|--------------------|
E|-------------------|--------------------|-------------------|--------------------|

[Outro]
BbM7    C
       BbM7    Am7
       F     Am7
       F     C

e|-------5-5-----5---|-------5-5-----5----|-------5-5-----5---|-------5-5-----5----|
B|-6-6-6-----6-6---6-|-6-6-6-----6-6---6--|-6-6-6-----6-6---6-|-6-6-6-----6-6---6--|
G|-------------------|--------------------|-------------------|--------------------|
D|-------------------|--------------------|-------------------|--------------------|
A|-------------------|--------------------|-------------------|--------------------|
E|-------------------|--------------------|-------------------|--------------------|

e|-------------------|--------------------|-------------------|--------------------|
B|-------5-5-----6---|-------6-6-----6----|-------5-5-----6---|-------6-6-----6-5--|
G|-5-5-5-----5-5---5-|-5-5-5-----5-5---5--|-5-5-5-----5-5---5-|-5-5-5-----5-5------|
D|-------------------|--------------------|-------------------|--------------------|
A|-------------------|--------------------|-------------------|--------------------|
E|-------------------|--------------------|-------------------|--------------------|

e|-------5-5-----5---|-------5-5-----8-6--|-------5-5-----5---|-------5-5-----5----|
B|-6-6-6-----6-6---6-|-6-6-6-----6-6------|-6-6-6-----6-6---6-|-6-6-6-----6-6---6--|
G|-------------------|--------------------|-------------------|--------------------|
D|-------------------|--------------------|-------------------|--------------------|
A|-------------------|--------------------|-------------------|--------------------|
E|-------------------|--------------------|-------------------|--------------------|
                                                                                increase feedback repeats
e|-------------------|--------------------|-------------------|--------------------|
B|-------5-5-----6---|-------6-6-----6----|-------5-5-----6---|-------6-6-----6-5--|
G|-5-5-5-----5-5---5-|-5-5-5-----5-5---5--|-5-5-5-----5-5---5-|-5-5-5-----5-5------|
D|-------------------|--------------------|-------------------|--------------------|
A|-------------------|--------------------|-------------------|--------------------|
E|-------------------|--------------------|-------------------|--------------------|


You don't have to tell me
If you ever think of me
I know you say you're busy
In the wild fog of your memory
You don't have to tell me
I can still believe

[Ending]
BbM7



************************************

| \    Slide down
| x    Dead note
| h    Hammer-on
| /    Slide up
| p    Pull-off
| (n)  Ghost note
| ~    Vibrato

************************************

            
            
Suggest correction
Creating personal tab
Creating personal tab
You can edit any tab online and save it as your Personal.

You can edit, replace or remove any tab part or add personal notes – all changes will be seen only by you.

Personal tabs can be accessed anytime from any device, even offline.
Learn more »
Give kudos to tab author, rate the tab!
1 2 3 4 5
comments
print report bad tab
1 comment total.
+1 reply
cindelguerrero 2,400 Jul 12, 2017 03:04 AM

There's no tab for track 7, Pool

guest
You may want to rate the tab now too:
select rating
Wanna post a correction for this tab? Suggest correction