Oops, an error
Loading. Please wait.

Aint It Fun Bass Tab

version 1
version 1

Whole song

Interactive

19,828 views 69 this week
no commentswrite comment
1 2 3 4 5
worth learning
x 8
add to favorites
launch autoscroll
font size
0
reset
guitar tuner
Autoscroll
slow
fast
+/-
esc
set tempo
stop
Help us to improve Ultimate-Guitar.com Take our survey!
×
Author
Difficulty
Tuning
intermediate
B F# B E G# C#
Slide in
G|--------------|
D|--------------|
A|-7/12\7-------|
E|--------------|
B|--------------|

Verse
G|------------------------------------|
D|------------------------------------|
A|--.-.-.-.-.-.-.-.---------.-.-.-.---|
E|--5-5-5-5-5-5-5-5---.-.-.-7-7-7-7--5|
B|-----------------22-2-2-2-----------|
                   ^a bit off        ^
G|--------------------------------------|
D|--------------------------------------|
A|-.-.-.-.-.-.-.-.-----------.----------|
E|-5-5-5-5-5-5-5-5---.-.-.-2/9x-2/9-----|
B|----------------22-2-2-2--------------|

G|------------------------------------|
D|------------------------------------|
A|--.-.-.-.-.-.-.-.---------.-.-.-.---|
E|--5-5-5-5-5-5-5-5---.-.-.-7-7-7-7--5|
B|-----------------22-2-2-2-----------|
                            ^                 ^
G|--------------------------------------|
D|--------------------------------------|
A|-.-.-.-.-.-.-.-.-----------.----------|
E|-5-5-5-5-5-5-5-5---.-.-.-2/9x-2/9-----|
B|----------------22-2-2-2--------------|

Prechorus
G|--------------------------------------|
D|--------------------------------------|
A|----.-.-.-.-------.-.-.-.----.--------|
E|-5--5-5-5-5--54-9-7-9-7-9--7-7--------|
B|--------------------------------------|

G|--------------------------------------|
D|--------------------------------------|
A|----.-.-.-.----7/11-9\7---------------|
E|-5--5-5-5-5-5/9----------9\7----------|
B|--------------------------------------|

G|--------------------------------------|
D|--------------------------------------|
A|----.-.-.-.-------.-.-.-.----.--------|
E|-5--5-5-5-5--54-9-7-9-7-9--7-7--------|
B|--------------------------------------|

G|--------------------------------------|
D|--------------------------------------|
A|----.-.-.-.----7/11-9\7---------------|
E|-5--5-5-5-5-5/9----------9~----\------|
B|--------------------------------------|

Chorus (with Slight Variations)
G|------------------------------------|
D|------------------------------------|
A|------------------------------------|
E|--5-5-5-5-5-5-5-5---------7-7-7-7---|
B|------------------2-2-2-2-----------|

G|------------------------------------|
D|------------------------------------|
A|------------------------------------|
E|--5-5-5-5-5-5-5-5---------5/7-5/7---|
B|------------------2-2-2-2-----------|

G|------------------------------------|
D|------------------------------------|
A|------------------------------------|
E|--5-5-5-5-5-5-5-5-9-9-9-9-7-7-7-7---|
B|------------------------------------|

G|------------------------------------|
D|------------------------------------|
A|------------------------------------|
E|--5-5-5-5-5/9-5/7---------7-7-7-7---|
B|------------------2-2-2-2-----------|

Verse 2 = Verse 1

Pre-Chorus

Chorus
G|------------------------------------|
D|------------------------------------|
A|------------------------------------|
E|--5-5-5-5-5-5-5-5---------7-7-7-7---|
B|------------------2-2-2-2-----------|

G|------------------------------------|
D|------------------------------------|
A|------------------------------------|
E|--5-5-5-5-5-5-5-5---------5/7-5/7---|
B|------------------2-2-2-2-----------|

G|------------------------------------|
D|------------------------------------|
A|------------------------------------|
E|--5-5-5-5-5-5-5-5-9-9-9-9-7-7-7-7---|
B|------------------------------------|

G|------------------------------------|
D|------------------------------------|
A|------------------------------------|
E|--5-5-5-5-5/9-5/7---------7-7-7-7---|
B|------------------2-2-2-2-----------|

Chrous Part 2
G|------------------------------------|
D|------------------------------------|
A|------------------------------------|
E|--5-5-5-5-5-5-5-5---------7-7-7-7---|
B|------------------2-2-2-2-----------|

G|------------------------------------|
D|------------------------------------|
A|------------------------------------|
E|--5-5-5-5-5-5-5-5---------7-7-7-7---|
B|------------------2-2-2-2-----------|

G|------------------------------------|
D|------------------------------------|
A|------------------------------------|
E|--5-5-5-5-5-5-5-5-9-9-9-9-7-7-7-7---|
B|------------------------------------|

G|------------------------------------|
D|------------------------------------|
A|------------------------------------|
E|--5-5-5-5-5/9-5/7---------7-7-7-7---|
B|------------------2-2-2-2-----------|

Bridge
G|------------------|
D|------------------|
A|------------------|
E|-0-0-0-0-0-0-0-0--| x3 without Variation
B|------------------|

G|------------------|
D|-------------4/6--|
A|---------6/7----6/|
E|-0-0-0-0----------|
B|------------------|

G|------------------|------------------|
D|------------------|-------------6-7--|
A|-7----------------|------------7-----|
E|---0-0-0-0-0-0-0--|-0-0-0-0-0-0------|
B|------------------|------------------|
                                 ^
G|------------------|------------------|
D|------------------|------------------|
A|-7----------------|------------------|
E|---0-0-0-0-0-0-0--|-0-0-0-0-0-0-0-0--|
B|------------------|------------------|

G|------------------|-------------------|
D|------------------|-------------------|
A|---------------6/-|-7-6/7-------------|
E|-5-5-5-5-5-5-5----|------5-5-5-5-5-5--|
B|------------------|-------------------|

G|------------------|------------------|
D|------------------|------------------|
A|------------------|------------------|
E|-0-0-0-0-0-0-0-0--|-0-0-0-0-0-0-0-0--|
B|------------------|------------------|

G|------------------|-------------------|
D|------------------|-------------------|
A|---------------6/-|-7-6/7-------------|
E|-5-5-5-5-5-5-5----|------5-5-5-5-5-5--|
B|------------------|-------------------|

G|------------------|------------------|
D|------------------|------------------|
A|------------------|------------------|
E|-0-0-0-0-0-0-0-0--|-0-0-0-0-0-0-0-0--|
B|------------------|------------------|

4 Bars no Bass until drums come back in. There the bass player picks wildly while 
sliding from
G|------------------|
D|------------------|
A|------------------|
E|-12---to-------0--|
B|------------------|

Outro Chorus
Similar to the other chorus but with more variations within the chords. Repeat until 
Fade Out

By Bobert5

Feel free to Correct the Tab and if anyone is bothered to tab out the Last chorus, id be 
happy to add it.
Suggest correction
comments
print report bad tab
guest
You may want to rate the tab now too:
select rating
Wanna post a correction for this tab? Suggest correction