Oops, an error
Loading. Please wait.

Aint It Fun Tab

version 1
version 1

Whole song

Interactive

165,383 views 435 this week
6 commentsread comments
1 2 3 4 5
accurate
x 70
add to favorites
launch autoscroll
font size
0
reset
how to read this tab
guitar tuner
Autoscroll
slow
fast
+/-
esc
set tempo
stop
Help us to improve Ultimate-Guitar.com Take our survey!
×
Author
Difficulty
wewwew123 201
novice
Paramore - Ain't It Fun
Standard Tuning
follow me :) https://twitter.com/dejpelayo


[Intro]

e|-----------------------------------------------------------|
B|-----------------------------------------------------------|
G|4h6---4h6----4h6----4h6---4h6------4h6-6-------------------|
D|----6-----6------6------6-----6----------------------------|
A|-----7-------7-----7-----7------7--------------------------|
E|-----------------------------------------------------------|


[Verse]
e|--------------------------------------------------------------------|
B|--------------------------------------------------------------------|
G|----4h6----4h6----4h6---4h6-----------------------------------------|
D|--6-----6------6------6-----6------------------------------|repeat--| 4x
A|---7------7------7-----7-----7--------------------------------------|
E|--------------------------------------------------------------------|


[Pre-Chorus]

e|-----------------------------------------------------------|
B|-----------------------------------------------------------|
G|----4h6----4h6----4h6---4h6--------------------------------|
D|--6-----6------6------6-----6------------------------------|
A|---7------7-----7------7-----------------------------------|
E|-----------------------------------------------------------|

e|-------------------------------------------------------------|
B|-------------------------------------------------------------|
G|----4h6----4h6----4h6---4h6-6--------------------------------|
D|--6-----6------6------6--------------------------------------|
A|---7------7------7-------------------------------------------|
E|-------------------------------------------------------------|


[Chorus]

e|----------------------------------------------------------------------------|
B|----------------------------------------------------------------------------|
G|----------------------------------------------------------------------------|
D|--77777777--11111111-(11's)--999999--77777777--1111111-(11's)--999999-------|
A|--77777777--11111111-(11's)--999999--77777777--1111111-(11's)--999999-------|
E|--55555555--999999-----------777777--55555555--999999----------777777-------|


[Verse]

e|-----------------------------------------------------------|
B|-----------------------------------------------------------|
G|----4h6----4h6----4h6---4h6--------------------------------|
D|--6-----6------6------6-----6------------------------------|repeat 4x
A|---7------7------7-----7-----7-----------------------------|
E|-----------------------------------------------------------|


[Pre-Chorus]

e|-------------------------------------------------------------|
B|-------------------------------------------------------------|
G|----4h6----4h6----4h6---4h6----------------------------------|
D|--6-----6------6------6-----6--------------------------------|
A|---7------7------7-----7-------------------------------------|
E|-------------------------------------------------------------|
Add this after that.
e|------------------------------------------------------|
B|------------------------------------------------------|
G|------------------------------------------------------|
D|-------4h6----4h6---4h6----4h6---4h6------------------|
A|----4h6----4h6---4h6----4h6---4h6---------------------|
E|------------------------------------------------------|
........just mess around :D......

e|-------------------------------------------------------------|
B|-------------------------------------------------------------|
G|----4h6----4h6----4h6---4h6-6--------------------------------|
D|--6-----6------6------6--------------------------------------|
A|---7------7-----7--------------------------------------------|
E|-------------------------------------------------------------|

Another Guitar do this
e|-----7-7-7-7-9-7-7-7-7-9-----------------------------------|
B|-----------------------------------------------------------|
G|-----------------------------------------------------------|
D|-----------------------------------------------------------|Repeat
A|-----------------------------------------------------------|
E|-----------------------------------------------------------|


Then Repeat [Chorus]

e|-------------------------------------------------------------------------|
B|-------------------------------------------------------------------------|
G|-------------------------------------------------------------------------|
D|--77777777--1111111-(11's)--999999--77777777--1111111-(11's)--999999-----|
A|--77777777--1111111-(11's)--999999--77777777--1111111-(11's)--999999-----|
E|--55555555--999999----------777777--55555555--999999----------777777-----|

lead guitar plays after ...."living in a real world"....
e|------7-----------7-------------7--------------------------|
B|------------9-----------7--------------5-------------------|
G|-----------------------------------------------------------|
D|-----------------------------------------------------------|
A|-----------------------------------------------------------|
E|-----------------------------------------------------------|

Next
...ain't it good to be on your own ........... (just repeat the chords)
e|-----------------------------------------------------------|
B|-----------------------------------------------------------|
G|-----------------------------------------------------------|
D|------77777777--------------111111111----------------------|
A|------77777777--------------111111111----------------------|
E|------55555555--------------99999999-----------------------|

e|-------------------------------------------------------------------------|
B|-------------------------------------------------------------------------|
G|-------------------------------------------------------------------------|
D|--77777777--1111111-(11's)--999999--77777777--1111111-(11's)--999999-----|
A|--77777777--1111111-(11's)--999999--77777777--1111111-(11's)--999999-----|
E|--55555555--999999----------777777--55555555--999999----------777777-----|


[Bridge]

e|-----------------------------------------------------------|
B|-----------------------------------------------------------|
G|-----------------------------------------------------------|
D|---77777777777777777-------2222222222222222----------------|
A|---77777777777777777-------2222222222222222----------------|
E|---55555555555555555-------0000000000000000----------------|
......................PALM MUTED...............................


CLAP ! CLAP! (YEAH !:D)\m/

then Chorus
After chorus
Then mix the bridge and this.

e|-----7-7-7-7-9-7-7-7-7-9-----------------------------------|
B|-----------------------------------------------------------|
G|-----------------------------------------------------------|
D|-----------------------------------------------------------|Repeat
A|-----------------------------------------------------------|
E|-----------------------------------------------------------|

End. Hope you Like It . If you have any song request . Send it to my gmail.
jp07221@gmail.com (PARAMORE ONLY!!)

PARAMORE ROCKS !!!



************************************

| h  Hammer-on

************************************
Suggest correction new What's this?
You can suggest a correction to this tab. Community and Mods will review your correction and vote to approve or reject it.
comments
print report bad tab
6 comments total. Showing first comments.
0 reply
wewwew123 201 wrote on April 12 2013, 11:36 pm

please rate :D

+1 reply
Sciking 12 wrote on May 30 2013, 09:57 am

Great tab dude !, only one thing in the chorus instead of 997 its 220 :D

0 reply
McBird182 45 wrote on June 4 2013, 09:13 am

Brilliant Tab. Just a note to say the 4-6 on the G is a hammer on.

guest
You may want to rate the tab now too:
select rating
Please do not post tabs as comments. Select "correction" instead!