Oops, an error
Loading. Please wait.

Aint It Fun Bass Tab

version 2
version 2

Whole song

Interactive

90,375 views 219 this week
1 commentread comment
1 2 3 4 5
excellent!
x 37
add to favorites
launch autoscroll
font size
0
reset
guitar tuner
Tab Pro tools
  • play this tab
  • loop segment
  • change instrument
  • show fretboard
  • metronome
×
Best way to learn
"Aint It Fun"
Autoscroll
slow
fast
+/-
esc
set tempo
stop
Contributor
Difficulty
Tuning
intermediate
C# G# C# F# A# D#
Artist: Paramore
Song: Ain't It Fun
Tuning: Drop C#
Tabbed By DBC

Come In With A Slide Down The F# String
Verse
    . . . . . . . .  . . . . .    . . . . . . . .  . . .  . .
F#|------------------------------------------------------------|
C#|-------------------------------------------------------3-5--|
G#|-1-1-1-1-1-1-1-1---------------1-1-1-1-1-1-1-1--------------|
C#|----------------0-0-0-0-3-3-3h5---------------0-0-0-0-3-5---|x2

Pre-Chorus
       . . . .                        . . . .
F#|----------------------------------------------------------------------|
C#|-------------------------------------------------3~--7-5-3-5~--3------|
G#|-1~-1-1-1-1-----1/5-0-----------1~-1-1-1-1----3h5----------------5-3~-|
C#|----------------------0-2-3--3h5--------------------------------------|

       . . . .                      . . . .
F#|-------------------------------------------------------------|
C#|-----------------------------------------------3~--7-5-3-----|
G#|-1~-1-1-1-1----1/5-0----------1~-1-1-1-1----3h5----------5~\-|
C#|---------------------0-2-3-3h5-------------------------------|

Chorus                                                    . .
F#|------------------------------------------------------------|
C#|-------------------------------------------------------3-5--|
G#|-1-1-1-1-1-1-1-1---------------1-1-1-1-1-1-1-1--------------|
C#|----------------0-0-0-0-3-3-3h5---------------0-0-0-0-3-5---|

Chorus 2                                    .   .         . .
F#|-----------------------------------------3---2--------------|
C#|-------------------------------------------------------3-5--|
G#|-1-1-1-1-1-1-1-1---------------1-1-1-1-1---1----------------|
C#|----------------0-0-0-0-3-3-3h5---------------0-0-0-0-3-5---|

Verse
Pre-Chorus
Chorus
Chorus 2

Chorus 3
F#|--------------------------------|
C#|--------------------------------|
G#|-1-1-1-1-1-1-1h3--------3-3-3h5-|
C#|----------------3-3-3-5---------|x2

Chorus4                                       .   .          . .
F#|-------------------------------------------3---2---------------|
C#|----------------------------------------------------------3-5--|
G#|-1-1-1-1-1-1-1-1-1/5-0------------1-1-1-1-1---1----------------|
C#|-----------------------0-2-3-3-3h5---------------0-0-0-0-3-5---|

Bridge
    . . . . . . . . . . . . . . . . . . . . . . . . . . . .  .  .
F#|---------------------------------------------------------------|
C#|----------------------------------------------------------3--7-|
G#|---------------------------------------------------------------|
C#|-3-3-3-3-3-3-3-3-3-3-3-3-3-3-3-3-3-3-3-3-3-3-3-3-3-3-3-3-3-/7--|

     . . . . . . . . . . . . .          . . . . . . . . . . . . . .
F#|-----------------------------------------------------------------|
C#|--3----------------------------5h7~------------------------------|
G#|----------------------------5h7----8\------------------------3-3-|
C#|-3--3-3-3-3-3-3-3-3-3-3-3-3----------3-3-3-3-3-3-3-3-3-3-5-5-----|

    . . . . . . . . ...... . . . . . . . . . . . . . . . . . . . . .
F#|------------------3--3--------------------------------------------|
C#|------------------------------------------------------------------|
G#|-1-1-1-1-1-1-1-1-1-11-1-1-1-1-1-1-----------------------------3-3-|
C#|----------------------------------3-3-3-3-3-3-3-3-3-3-3-3-5-5-----|

    . . . . . . . . ...... . . . . . . . . . . . . . . . . . . . . .
F#|------------------3--3---------------------------------------------|
C#|----------------------------------3~-------------------------------|
G#|-1-1-1-1-1-1-1-1-1-11-1-1-1-1-3h5----------------------------------|
C#|------------------------------------3-3-3-3-3-3-3-3-3-3-3-3-3-3-33\|

Rest

Come Back In With A Slide Down The High C# String
Chorus
Chorus 2
Chorus 3
Chorus 4
Then Just Muck Around With The Verse Until The End.
comments
print report bad tab
1 comment total.
0 reply
TheWorldIsAMess wrote on July 18 2013, 01:23 am

nice! keep up

I want to post or [tab]
guest
You may want to rate the tab now too:
select rating
Please do not post tabs as comments. Select "correction" instead!