Oops, an error
Loading. Please wait.

Aint It Fun Tab

version 2
version 2

Whole song

Interactive

27,674 views 69 this week
4 commentsread comments
1 2 3 4 5
accurate
x 8
add to favorites
launch autoscroll
font size
0
reset
how to read this tab
guitar tuner
Tab Pro tools
  • play this tab
  • loop segment
  • change instrument
  • show fretboard
  • metronome
×
Best way to learn
"Aint It Fun"
Autoscroll
slow
fast
+/-
esc
set tempo
stop
Contributor
Difficulty
Tuning
intermediate
D A D G B E
verse
e-----------------------|
b-----------------------|
g-----4h6-------4h6-----|   repeat
d-6----------6----------|
a---7----------7--------|
D-----------------------|

------------------------|
------------------------|
-----4h6-------4h6-6----|   before chorus
-6----------6-----------|
---7----------7---------|
------------------------|

Chorus
ain't it fun, living in the real world

-------------------------------------|
-------------------------------------|
-------------------------------------|
-7-7-7-7-7-7-7--11-11-11-11--9-9-9-9-| repeat
-7-7-7-7-7-7-7--11-11-11-11--9-9-9-9-|
-7-7-7-7-7-7-7--11-11-11-11--9-9-9-9-|

-------------------------------------|
-------------------------------------|
-16-16--13---16-16--11---------------| you hear a guitar with a bit of a clean
-------------------------------------| sound playing this sometimes.
-------------------------------------|
-------------------------------------|

verse
chorus


Bridge
Don't go crying to your mama cause you're on your own in the real world

palm mute
--------------------        ------------|
--------------------        ------------|
-------------------- repeat ------------| sometimes he changes to 7 and goes
-2-2-2-2-2-2-2------        -7-7-7-7----| back to 2
-2-2-2-2-2-2-2------        -7-7-7-7----|
-2-2-2-2-2-2-2------        -7-7-7-7----|

Ain't it fun
Ain't it fun
Baby, now you're one of us
Ain't it fun
Ain't it fun

Chorus
ain't it fun, living in the real world

-------------------------------------|
-------------------------------------|
-------------------------------------|
-7-7-7-7-7-7-7--11-11-11-11--9-9-9-9-| repeat
-7-7-7-7-7-7-7--11-11-11-11--9-9-9-9-|
-7-7-7-7-7-7-7--11-11-11-11--9-9-9-9-|

-------------------------------------|
-------------------------------------|
-16-16--13---16-16--11---------------|
-------------------------------------|
-------------------------------------|
-------------------------------------|

at the end there is some kind of solo but I haven't figured it out yet but you can just 
play the chorus chords there.
comments
print report bad tab
4 comments total. Showing first comments.
0 reply
iamthelaw92 wrote on April 26 2013, 06:12 pm

Hey dude, I have an idea for the solo at the end but I don't know how to tab. It's a lick on the B and hi E strings using the 9th and 12th frets. I don't know how to tab it out but it's a roll from 9 on hi E to 9 on B, then the 12th on the B, then the 9th on Hi E, hammer on then pull of to the 12th on Hi E, then 12 on the B, then 9 on the E with slight variations here and there. Hopefully that didn't make absolutely no sense

+1 reply
Unholy.Daemon wrote on May 11 2013, 10:28 am

think that high bit at the end goes something like this:

e---------12-9----9-
B--9-12-9------12--- x3

on fourth repeat (not 100% sure about this)

e---------12-12b-9\---:|
B--9-12-9-------------:|

not sure if that's it exactly but i've been playing along and it sounds mostly right

0 reply
AlbertoPagan8 wrote on June 19 2013, 05:56 am

I whatched some live of this song and I'm 100% sure that the chorus is
like this:


--------------------------------------|
--------------------------------------|
--------------------------------------|
-7-7-7-7-7-7-7--11-11-11-11--2-2-2-2--|
-7-7-7-7-7-7-7--11-11-11-11--2-2-2-2--|
-7-7-7-7-7-7-7--11-11-11-11--2-2-2-2--|

The clean sound could be done like this (I think is more easy and clean)

-------------------------------------|
----12---------12--------------------|
--------13---------11----------------|
-------------------------------------|
-------------------------------------|
-------------------------------------|

And the solo could be:

----------12--9-----9----------------|
--9h12p9--------12----(9)------------| (9) = Sometimes is played
-------------------------------------|
-------------------------------------|
-------------------------------------|

I want to post or [tab]
guest
You may want to rate the tab now too:
select rating
Please do not post tabs as comments. Select "correction" instead!