Oops, an error
Loading. Please wait.

Aint It Fun Tab

version 3
version 3

Interactive

25,859 views 42 this week
7 commentsread comments
1 2 3 4 5
accurate
x 20
add to favorites
launch autoscroll
font size
0
reset
how to read this tab
guitar tuner
Autoscroll
slow
fast
+/-
esc
set tempo
stop
Help us to improve Ultimate-Guitar.com Take our survey!
×
Difficulty
Tuning
intermediate
D A D G B E
Since no one seems to have the tab right i sounded it out and i'm 99% sure this is correct.
This is my first tab so sorry if i made any mistakes. Please correct me if i did.

(the tabs kept stuffing up so sorry if its really messy it isn't me)

you may need to listen to the song to get the rhythm and find when there are pauses
but it shouldn't be to hard to figure out


[Intro]

E|-------------|     |-----------------|
B|-------------|     |-----------------|
G|-------------|     |-----------------|
D|--------9h11-|     |--------9h11-11--|
A|--11-7-------|     |--11-7-----------|
D|-------------|(x4) |-----------------|


[Verse]                                                           (listen for pauses)

E|----------------------------|--------------------------------------|--------------------|---------------|
B|----------------------------|--------------------------------------|--------------------|---------------|
G|------------------------(x3)|---------------------------9----------|--------------------|---------------|
D|--------9h11--------9h7-----|--------9h11---------9h11----11-9h11--|--------9h11-(x13)--|--------9h11-11|
A|--11-7---------11-7---------|--11-7---------11-7-------------------|--11-7--------------|--11-7---------|
D|----------------------------|--------------------------------------|--------------------|---------------|


[Chorus]

E|---------------|-------------|-------------|
B|---------------|-------------|-------------|
G|---------------|-------------|-------------|
D|--7-7-7-7-7-7-7|--11-11-11-11|--2-2-2-2----|
A|--7-7-7-7-7-7-7|--11-11-11-11|--2-2-2-2----|
D|--7-7-7-7-7-7-7|--11-11-11-11|--2-2-2-2----|(x4)

lead over chorus: (this happens when you play 7 the second time round in the chorus)

E|---------------------------------|
B|---------------------------------|
G|--15-15-12--15-15-10--10h12-8----|
D|---------------------------------|
A|---------------------------------|
D|---------------------------------|


[Verse]

E|-----------------------------|--------------------------------------|--------------------|
B|-----------------------------|--------------------------------------|--------------------|
G|------------------------ (x3)|---------------------------9----------|--------------------|
D|--------9h11--------9h7------|--------9h11---------9h11----11-9h11--|--------9h11--(x5---|
A|--11-7---------11-7----------|--11-7---------11-7-------------------|--11-7--------------|
D|-----------------------------|--------------------------------------|--------------------|

E|---------------------9|---------------|--------------------|
B|--------------9-------|---------------|--------------------|
G|----------------11-9--|-----------(x6)|--------------------|
D|--------9h11----------|--------9h11---|-------9h11-11------|
A|--11-7----------------|--11-7---------|--11-7--------------|
D|----------------------|---------------|--------------------|


[Chorus]

E|---------------|--------------|------------|
B|---------------|--------------|------------|
G|---------------|--------------|------------|
D|--7-7-7-7-7-7-7|--11-11-11-11|--2-2-2-2----| X8
A|--7-7-7-7-7-7-7|--11-11-11-11|--2-2-2-2----|
D|--7-7-7-7-7-7-7|--11-11-11-11|--2-2-2-2----|

lead over chorus: (this happens when you play 7 the second time round in the chorus)

E|---------------------------------|
B|---------------------------------|
G|--15-15-12--15-15-10--10h12-8----|
D|---------------------------------|
A|---------------------------------|
D|---------------------------------|

[Bridge]

(palmuted)

E|-----------------|         |----------------------------------|---------------------------------|
B|-----------------|         |----------------------------------|---------------------------------|
G|-----------------|         |--3-3-3-3-3-3-3-3-3-3-3-3-3-3-3-3-|---------------------------------|
D|--2-2-2-2-2-2-2-2| repeat  |--3-3-3-3-3-3-3-3-3-3-3-3-3-3-3-3-|--2-2-2-2-2-2-2-2-2-2-2-2-2-2-2-2|
A|--2-2-2-2-2-2-2-2| 6 times |--1-1-1-1-1-1-1-1-1-1-1-1-1-1-1-1-|--2-2-2-2-2-2-2-2-2-2-2-2-2-2-2-2|
D|--2-2-2-2-2-2-2-2|         |----------------------------------|--2-2-2-2-2-2-2-2-2-2-2-2-2-2-2-2|

E|----------------------------------|---------------------------------|
B|----------------------------------|---------------------------------|
G|--3-3-3-3-3-3-3-3-3-3-3-3-3-3-3-3-|---------------------------------|
D|--3-3-3-3-3-3-3-3-3-3-3-3-3-3-3-3-|--2-2-2-2-2-2-2-2-2-2-2-2-2-2-2-2|
A|--1-1-1-1-1-1-1-1-1-1-1-1-1-1-1-1-|--2-2-2-2-2-2-2-2-2-2-2-2-2-2-2-2|
D|----------------------------------|--2-2-2-2-2-2-2-2-2-2-2-2-2-2-2-2|

[Chorus]

E|---------------|-------------|-------------|
B|---------------|-------------|-------------|
G|---------------|-------------|-------------|
D|--7-7-7-7-7-7-7|--11-11-11-11|--2-2-2-2----|
A|--7-7-7-7-7-7-7|--11-11-11-11|--2-2-2-2----|
D|--7-7-7-7-7-7-7|--11-11-11-11|--2-2-2-2----|(x8)

lead over chorus: (this happens when you play 7 the second time round in the chorus)

E|---------------------------------|
B|---------------------------------|
G|--15-15-12--15-15-10--10h12-8----|
D|---------------------------------|
A|---------------------------------|
D|---------------------------------|


[Solo]

E|-------9h12p9----9-|------9h12p9--------|-------9h12p9----9---14-14-12-9-|
B|--9h12--------12---|--9h12--------12-9-9|--9h12--------12----------------|
G|-------------------|--------------------|--------------------------------|
D|-------------------|--------------------|--------------------------------| (repeat 4 times)
A|-------------------|--------------------|--------------------------------|
D|-------------------|--------------------|--------------------------------|

E|-----------------|--------------------|
B|--9-9---9-10-9--9|--9-9---9-10-9------|
G|------9--------9-|------9---------9---|
D|-----------------|--------------------|
A|-----------------|--------------------|
D|-----------------|--------------------|

E|-----------------------|---------------------------|
B|-----------------------|---------------------------|
G|-----------------------|---------------------------|
D|--------9h11-------9h11|--------9h11-------9h11----|
A|--11-7-------11-7------|--11-7-------11-7----------|
D|-----------------------|---------------------------|


E|-----------------|----------------------|
B|--9-9---9-10-9--9|--9-9---9-10-9--------|
G|------9--------9-|------9---------9-----|
D|-----------------|----------------------|
A|-----------------|----------------------|
D|-----------------|----------------------|

E|-----------------------|---------------------------|
B|-----------------------|---------------------------|
G|-----------------------|---------------------------|
D|--------9h11-------9h11|--------9h11-------9h11----|
A|--11-7-------11-7------|--11-7-------11-7----------|
D|-----------------------|---------------------------|

(listen closely for when this is played under the solo but this isn't really needed)

E|--7-7-7-7-|--7-7-7-7----|
B|----------|-------------|
G|--4-4-4-4-|--4-4-4-4----|
D|----------|-------------|
A|----------|-------------|
D|----------|-------------|


************************************

| h  Hammer-on
| p  Pull-off

************************************
Suggest correction
comments
print report bad tab
7 comments total. Showing first comments.
-1 reply
bekwantsfood 10 wrote on August 27 2013, 11:41 pm

in the bridge its

--------------------------------- ---------------------------------
--------------------------------- ---------------------------------
--------------------------------- instead --3-3-3-3-3-3-3-3-3-3-3-3-3-3-3-3
--7-7-7-7-7-7-7-7-7-7-7-7-7-7-7-7 of --3-3-3-3-3-3-3-3-3-3-3-3-3-3-3-3
--7-7-7-7-7-7-7-7-7-7-7-7-7-7-7-7 --1-1-1-1-1-1-1-1-1-1-1-1-1-1-1-1
--7-7-7-7-7-7-7-7-7-7-7-7-7-7-7-7 ---------------------------------
sorry i was in a different tuning when i wrote this tab :)

0 reply
patsycoconut 51 wrote on November 22 2013, 09:43 pm

this
---------------------------------|
---------------------------------|
--16-16-13--16-16-11--11h13-9----|
---------------------------------|
---------------------------------|
---------------------------------|

instead of

---------------------------------|
---------------------------------|
--15-15-12--15-15-10--10h12-8----|
---------------------------------|
---------------------------------|
---------------------------------|

Great tab!

0 reply
Vortex_uk 173 wrote on February 27 2014, 04:33 am

Doesn't need to be in Dropped D, there's no open D chords... Also it's easier if you play the chorus like THIS, I find at least:

e|-----------------------------------|
B|-----------------------------------|
G|--2-2-2-2-2-2-2-2-6-6-6-6----------|
D|--2-2-2-2-2-2-2-2-6-6-6-6-2-2-2-2--|
A|--0-0-0-0-0-0-0-0-4-4-4-4-2-2-2-2--|
E|--------------------------0-0-0-0--|

Also you missed out the chord change during the second and third chorus':

e|-----------------------------------|
B|-----------------------------------|
G|--2-2-2-2-2-2-2-2---------4-4-4-4--|
D|--2-2-2-2-2-2-2-2-2-2-2-2-4-4-4-4--|
A|--0-0-0-0-0-0-0-0-2-2-2-2-2-2-2-2--|
E|------------------0-0-0-0----------|

guest
You may want to rate the tab now too:
select rating
Please do not post tabs as comments. Select "correction" instead!