Oops, an error
Loading. Please wait.

Aint It Fun Tab

version 4
version 4

Whole song

Interactive

3,784 views 12 this week
1 commentread comment
1 2 3 4 5
please rate
add to favorites
launch autoscroll
font size
0
reset
how to read this tab
guitar tuner
Tab Pro tools
  • play this tab
  • loop segment
  • change instrument
  • show fretboard
  • metronome
×
Best way to learn
"Aint It Fun"
Autoscroll
slow
fast
+/-
esc
set tempo
stop
Contributor
Difficulty
novice
The other tabs missed some nuances in this song, such as the extra notes in the intro and verse.

Intro: Xylophone plays one bar then
E|-----------------------|  
B|-----------------------|   
G|------4h6--------4h6---|  
D|--6---------6----------|  x2
A|----7-----7---7--------|     
E|-----------------------|

E|-----------------------|  
B|-----------------------|   
G|------4h6--6-----------|  
D|--6--------------------|  
A|----7------------------|     
E|-----------------------|

Verse:
E|-----------------------|  
B|-----------------------|   
G|------4h6--------4h6---|  
D|--6---------6----------|  x4
A|----7-----7---7--------|     
E|-----------------------|

E|-----------------------|  
B|--5--------------------|   
G|----6-4h6---------4h6--|  
D|-------------6---------|  
A|-----------7---7-------|     
E|-----------------------|

E|-----------------------|  
B|-----------------------|   
G|------4h6--------4h6---|  
D|--6---------6----------|  x3
A|----7-----7---7--------|     
E|-----------------------|

PreChorus:

Dance break while keyboards plays two bars

E|-----------------------|  
B|-----------------------|   
G|------4h6--------4h6---|  
D|--6---------6----------|  x2
A|----7-----7---7--------|     
E|-----------------------|

Another dance break while keyboard plays two bars

E|-----------------------|  
B|-----------------------|   
G|------4h6--------4h6---|  
D|--6---------6----------| 
A|----7-----7---7--------|     
E|-----------------------|

E|-----------------------|  
B|-----------------------|   
G|------4h6--6-----------|  
D|--6--------------------|  
A|----7------------------|     
E|-----------------------|

1st Chorus:

E|------------------------------------|  
B|------------------------------------|   
G|-2-2-2-2-2-2-2-2-4-4-4-4------------|  
D|-2-2-2-2-2-2-2-2-4-4-4-4-2-2-2-2----|  x4
A|-0-0-0-0-0-0-0-0-2-2-2-2-2-2-2-2----|     
E|-------------------------0-0-0-0----|

2nd Chorus:

E|------------------------------------|  
B|------------------------------------|   
G|-2-2-2-2-2-2-2-2-4-4-4-4------------|  
D|-2-2-2-2-2-2-2-2-4-4-4-4-2-2-2-2----|  x4
A|-0-0-0-0-0-0-0-0-2-2-2-2-2-2-2-2----|     
E|-------------------------0-0-0-0----|

E|------------------------------------|  
B|------------------------------------|   
G|-2-2-2-2-2-2-2-2---------4-4-4-4----|  
D|-2-2-2-2-2-2-2-2-2-2-2-2-4-4-4-4----|  x2
A|-0-0-0-0-0-0-0-0-2-2-2-2-2-2-2-2----|     
E|-----------------0-0-0-0------------|

E|------------------------------------|  
B|------------------------------------|   
G|-2-2-2-2-2-2-2-2-4-4-4-4------------|  
D|-2-2-2-2-2-2-2-2-4-4-4-4-2-2-2-2----|  x2
A|-0-0-0-0-0-0-0-0-2-2-2-2-2-2-2-2----|     
E|-------------------------0-0-0-0----|

Bridge:

E|------------------------|  
B|------------------------|   
G|------------------------|  
D|-2-2-2-2-2-2-2-2--------|  x8
A|-2-2-2-2-2-2-2-2--------|     
E|-0-0-0-0-0-0-0-0--------|

E|------------------------|  
B|------------------------|   
G|-2-2-2-2-2-2-2-2--------|  
D|-2-2-2-2-2-2-2-2--------|  x2
A|-0-0-0-0-0-0-0-0--------|     
E|------------------------|

E|------------------------|  
B|------------------------|   
G|------------------------|  
D|-2-2-2-2-2-2-2-2--------|  x2
A|-2-2-2-2-2-2-2-2--------|     
E|-0-0-0-0-0-0-0-0--------|

E|------------------------|  
B|------------------------|   
G|-2-2-2-2-2-2-2-2--------|  
D|-2-2-2-2-2-2-2-2--------|  x2
A|-0-0-0-0-0-0-0-0--------|     
E|------------------------|

E|------------------------|  
B|------------------------|   
G|------------------------|  
D|-2-2-2-2-2-2-2-2--------|  x2
A|-2-2-2-2-2-2-2-2--------|     
E|-0-0-0-0-0-0-0-0--------|

3rd Chorus:

E|------------------------------------|  
B|------------------------------------|   
G|-2-2-2-2-2-2-2-2-4-4-4-4------------|  
D|-2-2-2-2-2-2-2-2-4-4-4-4-2-2-2-2----|  x8
A|-0-0-0-0-0-0-0-0-2-2-2-2-2-2-2-2----|     
E|-------------------------0-0-0-0----|
comments
We did not receive enough feedback on this tab! Please rate:
print report bad tab
1 2 3 4 5
1 comment total.
0 reply
calagero wrote on June 24 2014, 12:51 am

instead of the B5 chord after the A5, try C#5 then E5

I want to post or [tab]
guest
You may want to rate the tab now too:
select rating
Please do not post tabs as comments. Select "correction" instead!