Oops, an error
Loading. Please wait.

Aint It Fun Tab

version 4
version 4

Interactive

3,919 views 1 this week
1 commentread comment
1 2 3 4 5
please rate
add to favorites
launch autoscroll
font size
0
reset
how to read this tab
guitar tuner
Autoscroll
slow
fast
+/-
esc
set tempo
stop
Help us to improve Ultimate-Guitar.com Take our survey!
×
Author
Difficulty
novice
The other tabs missed some nuances in this song, such as the extra notes in the intro and verse.


[Intro]

Xylophone plays one bar then
E|-----------------------|  
B|-----------------------|   
G|------4h6--------4h6---|  
D|--6---------6----------|  
A|----7-----7---7--------|     
E|-----------------------|(x2)

E|-----------------------|  
B|-----------------------|   
G|------4h6--6-----------|  
D|--6--------------------|  
A|----7------------------|     
E|-----------------------|


[Verse]

E|-----------------------|  
B|-----------------------|   
G|------4h6--------4h6---|  
D|--6---------6----------|  
A|----7-----7---7--------|     
E|-----------------------|(x4)

E|-----------------------|  
B|--5--------------------|   
G|----6-4h6---------4h6--|  
D|-------------6---------|  
A|-----------7---7-------|     
E|-----------------------|

E|-----------------------|  
B|-----------------------|   
G|------4h6--------4h6---|  
D|--6---------6----------|  
A|----7-----7---7--------|     
E|-----------------------|(x3)


[Pre-Chorus]

Dance break while keyboards plays two bars

E|-----------------------|  
B|-----------------------|   
G|------4h6--------4h6---|  
D|--6---------6----------|
A|----7-----7---7--------|     
E|-----------------------|(x2)

Another dance break while keyboard plays two bars

E|-----------------------|  
B|-----------------------|   
G|------4h6--------4h6---|  
D|--6---------6----------| 
A|----7-----7---7--------|     
E|-----------------------|

E|-----------------------|  
B|-----------------------|   
G|------4h6--6-----------|  
D|--6--------------------|  
A|----7------------------|     
E|-----------------------|


[Chorus 1]

E|------------------------------------|  
B|------------------------------------|   
G|-2-2-2-2-2-2-2-2-4-4-4-4------------|  
D|-2-2-2-2-2-2-2-2-4-4-4-4-2-2-2-2----|
A|-0-0-0-0-0-0-0-0-2-2-2-2-2-2-2-2----|     
E|-------------------------0-0-0-0----|(x4)


[Chorus 2]

E|------------------------------------|  
B|------------------------------------|   
G|-2-2-2-2-2-2-2-2-4-4-4-4------------|  
D|-2-2-2-2-2-2-2-2-4-4-4-4-2-2-2-2----|
A|-0-0-0-0-0-0-0-0-2-2-2-2-2-2-2-2----|     
E|-------------------------0-0-0-0----|(x4)

E|------------------------------------|  
B|------------------------------------|   
G|-2-2-2-2-2-2-2-2---------4-4-4-4----|  
D|-2-2-2-2-2-2-2-2-2-2-2-2-4-4-4-4----|
A|-0-0-0-0-0-0-0-0-2-2-2-2-2-2-2-2----|     
E|-----------------0-0-0-0------------|(x2)

E|------------------------------------|  
B|------------------------------------|   
G|-2-2-2-2-2-2-2-2-4-4-4-4------------|  
D|-2-2-2-2-2-2-2-2-4-4-4-4-2-2-2-2----|  
A|-0-0-0-0-0-0-0-0-2-2-2-2-2-2-2-2----|     
E|-------------------------0-0-0-0----|(x2)


[Bridge]

E|------------------------|  
B|------------------------|   
G|------------------------|  
D|-2-2-2-2-2-2-2-2--------|
A|-2-2-2-2-2-2-2-2--------|     
E|-0-0-0-0-0-0-0-0--------|(x8)

E|------------------------|  
B|------------------------|   
G|-2-2-2-2-2-2-2-2--------|  
D|-2-2-2-2-2-2-2-2--------|
A|-0-0-0-0-0-0-0-0--------|     
E|------------------------|(x2)

E|------------------------|  
B|------------------------|   
G|------------------------|  
D|-2-2-2-2-2-2-2-2--------|
A|-2-2-2-2-2-2-2-2--------|     
E|-0-0-0-0-0-0-0-0--------|(x2)

E|------------------------|  
B|------------------------|   
G|-2-2-2-2-2-2-2-2--------|  
D|-2-2-2-2-2-2-2-2--------|
A|-0-0-0-0-0-0-0-0--------|     
E|------------------------|(x2)

E|------------------------|  
B|------------------------|   
G|------------------------|  
D|-2-2-2-2-2-2-2-2--------|
A|-2-2-2-2-2-2-2-2--------|     
E|-0-0-0-0-0-0-0-0--------|(x2)


[Chorus 3]

E|------------------------------------|  
B|------------------------------------|   
G|-2-2-2-2-2-2-2-2-4-4-4-4------------|  
D|-2-2-2-2-2-2-2-2-4-4-4-4-2-2-2-2----|
A|-0-0-0-0-0-0-0-0-2-2-2-2-2-2-2-2----|     
E|-------------------------0-0-0-0----|(x8)



************************************

| h  Hammer-on

************************************
Suggest correction
Give kudos to tab author, rate the tab!
1 2 3 4 5
comments
print report bad tab
1 comment total.
0 reply
calagero 39 wrote on June 24 2014, 12:51 am

instead of the B5 chord after the A5, try C#5 then E5

guest
You may want to rate the tab now too:
select rating
Wanna post a correction for this tab? Suggest correction