Oops, an error
Loading. Please wait.

Aint It Fun Tab

version 7
version 7

Interactive

28 views 1 this week
no commentswrite comment
1 2 3 4 5
3 more votes to show rating
add to favorites
launch autoscroll
font size
0
reset
how to read this tab
guitar tuner
Autoscroll
slow
fast
+/-
esc
set tempo
stop
Help us to improve Ultimate-Guitar.com Take our survey!
×
Author
Tuning
D A D G B E
*************************************************************************************************************
    
                                           Paramore - Ain't It Fun
                               Album: Paramore / Self-Titled Deluxe [2013/2014]

*************************************************************************************************************


Tuning: Drop D, DADGBe


[Intro]

 Guitar 1

e|------------------------------------------------------------------|
B|------------------------------------------------------------------|
G|-------------4h6-------------------4h6---------------4h6---(~)6---|
D|---6-----------------x---6-----------------6----------------------|
A|-------7-------------x-------7-----------------7------------------|
D|------------------------------------------------------------------|   



[Verse 1]

  Guitar 1

e|-----------------------------------------------------------------------------------------------------|
B|-----------------------------------------------------------------------------------------------------|
G|-------------4h6-------------------4h6-------------------4h6-------------------4h6-------------------|
D|---6-----------------x---6-----------------~6---------------------x---6----------------~6------------|
A|-------7-------------x-------7-----------------------7------------x-------7----------------------7---|
D|-----------------------------------------------------------------------------------------------------| 


e|----------------------------------------------------------------------------------------------------|
B|---------------------------------------------------------------------------(~)5---------------------|
G|---4h6-------------------4h6-------------------4h6-------------------4h6------------6---4h6---------|
D|-----------x---6-----------------~6---------------------x---6-----------------------------------x---|
A|-----------x-------7-----------------------7------------x-------7-------------------------------x---|
D|----------------------------------------------------------------------------------------------------|


e|---------------------------------------------------------------------------------------------------|
B|---------------------------------------------------------------------------------------------------|
G|-------------4h6-------------------4h6-------------------4h6-------------------4h6-----------------|
D|---6-----------------~6--------------------x---6-----------------~6--------------------x---6-------|
A|-------7----------------------7------------x-------7-----------------------7-----------x-------7---|
D|---------------------------------------------------------------------------------------------------|  


e|-----------------------------------------------------|
B|-----------------------------------------------------|
G|---4h6-------------------4h6-------------------4h6---|
D|-----------~6--------------------x---6---------------|
A|-------------------7-------------x--------7----------|
D|-----------------------------------------------------|   Pause
  

e|-------------------------------------------------------------------------------------|
B|-------------------------------------------------------------------------------------|
G|-------------4h6-------------------4h6-------------------4h6-------------------4h6---|
D|---6-----------------x---6-----------------~6---------------------x---6--------------|
A|-------7-------------x-------7-----------------------7------------x-------7----------|
D|-------------------------------------------------------------------------------------|   Pause


e|----------------------------------------------------------------------|
B|----------------------------------------------------------------------|
G|-------------4h6-------------------4h6-------------------4h6---(~)6---|
D|---6-----------------x---6-----------------~6-------------------------|
A|-------7-------------x-------7-----------------------7----------------|
D|----------------------------------------------------------------------| 


 

[Chorus 1]

 Guitar 1
                                
e|-------------------------------------------------------------------------------------|
B|-------------------------------------------------------------------------------------|
G|-------------------------------------------------------------------------------------|
D|---7------------11------------2------------7---------h9------------11------------2---|
A|---7------------11------------2------------7----------7------------11------------2---|
D|---7---(8x)-----11---(4x)-----2---(4x)-----7---(6x)---7---(3x)-----11---(4x)-----2---|   (2x)


 Guitar 2


e|-----------------------------------------------------------------------------------------------|
B|--------------------------------------------------------12-12-12------12-12-12-----------------|
G|-----------------------------------------------------------------13------------11-----13---9---|
D|-----------------------------------------------------------------------------------------------|
A|-----------------------------------------------------------------------------------------------|
D|-----------------------------------------------------------------------------------------------|   (2x) 



[Verse 2]

  Guitar 1

e|-----------------------------------------------------------------------------------------------------|
B|-----------------------------------------------------------------------------------------------------|
G|-------------4h6-------------------4h6-------------------4h6-------------------4h6-------------------|
D|---6-----------------x---6-----------------~6---------------------x---6----------------~6------------|
A|-------7-------------x-------7-----------------------7------------x-------7----------------------7---|
D|-----------------------------------------------------------------------------------------------------| 


e|----------------------------------------------------------------------------------------------------|
B|---------------------------------------------------------------------------(~)5---------------------|
G|---4h6-------------------4h6-------------------4h6-------------------4h6------------6---4h6---------|
D|-----------x---6-----------------~6---------------------x---6-----------------------------------x---|
A|-----------x-------7-----------------------7------------x-------7-------------------------------x---|
D|----------------------------------------------------------------------------------------------------|


e|---------------------------------------------------------------------------------------------------|
B|---------------------------------------------------------------------------------------------------|
G|-------------4h6-------------------4h6-------------------4h6-------------------4h6-----------------|
D|---6-----------------~6--------------------x---6-----------------~6--------------------x---6-------|
A|-------7----------------------7------------x-------7-----------------------7-----------x-------7---|
D|---------------------------------------------------------------------------------------------------|  


e|-----------------------------------------------------4---------7---4\---|
B|---------------------------------------------------------7---5----------|
G|---4h6-------------------4h6-------------------4h6----------------------|
D|-----------~6--------------------x---6----------------------------------|
A|-------------------7-------------x--------7-----------------------------|
D|------------------------------------------------------------------------|   Pause


e|--------------------------------------------------------------------------------------------|
B|--------------------------------------------------------------------------------------------|
G|-------------4h6-------------------4h6-------------------4h6-------------------4h6----------|
D|---6-----------------x---6-----------------~6---------------------x---6----------------~6---|
A|-------7-------------x-------7-----------------------7------------x-------7-----------------|
D|--------------------------------------------------------------------------------------------| 


e|------------------------------|----------------------------------------------------------------------|
B|------------------------------|----------------------------------------------------------------------|
G|------------------------------|-------------4h6-------------------4h6-------------------4h6---(~)6---|
D|---11\---6-------6h7----------|---6-----------------x---6-----------------~6-------------------------|
A|---11--------7----------------|-------7-------------x-------7-----------------------7----------------|
D|-----------------------~11\---|----------------------------------------------------------------------| 


Guitar 2


e|---4---4---4-4---4-----4---4---4-4---4---|
B|-----------------------------------------|
G|-----------------------------------------|
D|-----------------------------------------|
A|-----------------------------------------|
D|-----------------------------------------| 




[Chorus 2]
 

  Guitar 1
                                    
e|--------------------------------------------------------------------------------------------|
B|--------------------------------------------------------------------------------------------|
G|--------------------------------------------------------------------------------------------|
D|---7------------11------------2------------7---------h9------------11------------2----------|
A|---7------------11------------2------------7----------7------------11------------2----------|
D|---7---(8x)-----11---(4x)-----2---(4x)-----7---(6x)---7---(3x)-----11---(4x)-----2---(4x)---|   (2x)


e|------------------------------------------------------------------------------------------|
B|------------------------------------------------------------------------------------------|
G|------------------------------------------------------------------------------------------|
D|---7------------2------------9------------7---------h9------------2------------9----------|
A|---7------------2------------9------------7----------7------------2------------9----------|
D|---7---(8x)-----2---(4x)-----9---(4x)-----7---(6x)---7---(3x)-----2---(4x)-----9---(4x)---|   


e|--------------------------------------------------------------------------------------------|
B|--------------------------------------------------------------------------------------------|
G|--------------------------------------------------------------------------------------------|
D|---7------------11------------2------------7---------h9------------11------------2----------|
A|---7------------11------------2------------7----------7------------11------------2----------|
D|---7---(8x)-----11---(4x)-----2---(4x)-----7---(6x)---7---(3x)-----11---(4x)-----2---(4x)---|  



  Guitar 2


e|-----------------------------------------------------------------------------------------------|
B|--------------------------------------------------------12-12-12------12-12-12-----------------|
G|-----------------------------------------------------------------13------------11-----13---9---|
D|-----------------------------------------------------------------------------------------------|
A|-----------------------------------------------------------------------------------------------|
D|-----------------------------------------------------------------------------------------------|   (2x)




[Bridge]

 |---PM------------------------------------------------------------------------------------------------------|

e|-----------------------------------------------------------------------------------------------------------|
B|-----------------------------------------------------------------------------------------------------------|
G|-----------------------------------------------------------------------------------------------------------|
D|---2------------11----------9----------7-----------2-----------11----------9----------7-----------2--------|
A|---2------------11----------9----------7-----------2-----------11----------9----------7-----------2--------|
D|---2---(~60x)---11---(2x)---9---(2x)---7---(16x)---2---(12x)---11---(2x)---9---(2x)---7---(16x)---2---(16x)|





[Chorus]

  Guitar 1
                                    
e|--------------------------------------------------------------------------------------------|
B|--------------------------------------------------------------------------------------------|
G|--------------------------------------------------------------------------------------------|
D|---7------------11------------2------------7---------h9------------11------------2----------|
A|---7------------11------------2------------7----------7------------11------------2----------|
D|---7---(8x)-----11---(4x)-----2---(4x)-----7---(6x)---7---(3x)-----11---(4x)-----2---(4x)---|    (2x)


e|-------------------------------------------------------------------------------|
B|-------------------------------------------------------------------------------|
G|---9--------------------------------------9------------------------------------|
D|---9------------2------------9------------9------------2------------9----------|
A|---7------------2------------9------------7------------2------------9----------|
D|---7---(8x)-----2---(4x)-----9---(4x)-----7---(6x)-----2---(4x)-----9---(4x)---| 


e|---------------------------------------------------------------------------------------------|
B|---------------------------------------------------------------------------------------------|
G|---------------------------------------------------------------------------------------------|
D|---7------------11------------2------------7---------h9------------11------------2/----------|
A|---7------------11------------2------------7----------7------------11------------2/----------|
D|---7---(8x)-----11---(4x)-----2---(4x)-----7---(6x)---7---(3x)-----11---(4x)-----2/---(4x)---|  



  Guitar 2


e|-----------------------------------------------------------------------------------------------|
B|--------------------------------------------------------12-12-12------12-12-12-----------------|
G|-----------------------------------------------------------------13------------11-----13---9---|
D|-----------------------------------------------------------------------------------------------|
A|-----------------------------------------------------------------------------------------------|
D|-----------------------------------------------------------------------------------------------|   (2x)




[Solo]


e|-----------------------------------------------------------------------------------------------------------|
B|----------14h16--14--------14-----------14h16--14--------14-----------14h16--14--------14---17-17--19-19\--|
G|---13h16--------------16--------13h16-------------16--------13h16-----------------16-----------------------|
D|-----------------------------------------------------------------------------------------------------------|
A|-----------------------------------------------------------------------------------------------------------|
D|-----------------------------------------------------------------------------------------------------------|

(2x)




[Outro]

  Guitar 1

e|--------------------------------------------------------------------------------------------|
B|--------------------------------------------------------------------------------------------|
G|-------------4h6-------------------4h6-------------------4h6-------------------4h6----------|
D|---6-----------------x---6-----------------~6---------------------x---6----------------~6---|
A|-------7-------------x-------7-----------------------7------------x-------7-----------------|
D|--------------------------------------------------------------------------------------------| 
 
                                    
e|--------------------------------------------------------------------------------------------|
B|--------------------------------------------------------------------------------------------|
G|--------------------------------------------------------------------------------------------|
D|---7------------11------------2------------7---------h9------------11------------2----------|
A|---7------------11------------2------------7----------7------------11------------2----------|
D|---7---(8x)-----11---(4x)-----2---(4x)-----7---(6x)---7---(3x)-----11---(4x)-----2---(4x)---| 



Guitar 2


e|---4---4---4-4---4-----4---4---4-4---4---|
B|-----------------------------------------|
G|-----------------------------------------|
D|-----------------------------------------|
A|-----------------------------------------|
D|-----------------------------------------| 



*************************************************************************************************************

| h  Hammer-on
| x  Dead note
| ~  Vibrato
| \  Slide down
| /  Slide up

*************************************************************************************************************
Suggest correction
Give kudos to tab author, rate the tab!
1 2 3 4 5
comments
print report bad tab
guest
You may want to rate the tab now too:
select rating
Wanna post a correction for this tab? Suggest correction