Oops, an error
Loading. Please wait.

Aint It Fun tab

version 8
version 8

Whole song

Interactive

19 views 3 this week
no commentswrite comment
1 2 3 4 5
3 more votes to show rating
add to favorites
×
Save as Personal and add changes to this tab that will be seen only by you. Learn more ›
×
You can save this tab as Personal to edit and correct it or add notes. All changes will be seen only by you. Learn more »
launch autoscroll
font size
0
reset
how to read this tab
guitar tuner
backing track
0:00
0:00
edit
Autoscroll
slow
fast
+/-
esc
set tempo
stop
About this tab version
This is a lead guitar tab for Aint it Fun by Paramore. Hope you enjoy :). Was this info helpful? Yes No
Tuning: DROP C# (Lower all strings by one half step and lower the low E string to C#)

[Xylophone Intro] (0:00)
Does not play

[Intro] 
(0:03)
Start off quiet and get louder and louder each time you do the riff
d#|----------------|
A#|----------------|
F#|----4h5-----4h5-|
C#|-7-------7------|(x2)
G#|---8-------8----|
C#|----------------|

d#|----------------|
A#|----------------|
F#|------5--7--7---|
C#|-7--------------|
G#|----8-----------|
C#|----------------|

[Verse 1] (0:09)
d#|----------------|
A#|----------------|
F#|----4h5-----4h5-|
C#|-7-------7------|(x4)
G#|---8-------8----|
C#|----------------|

d#|----------------|
A#|-6--------------|
F#|-----7--5h7-----|
C#|----------------|
G#|----------------|
C#|----------------|

d#|----------------|
A#|----------------|
F#|----4h5-----4h5-|
C#|-7-------7------|(x3)
G#|---8-------8----|
C#|----------------|

d#|----------------|
A#|----------------|
F#|----4h5---------|
C#|-7--------------|
G#|---8------------|
C#|----------------|

[Break] (0:28)
Does not play

[Guitar comes in] (0:33)
d#|----------------|
A#|----------------|
F#|----4h5-----4h5-|
C#|-7-------7------|(x2)
G#|---8-------8----|
C#|----------------|

[Break] (0:37)
Does not play

[Guitar comes in] (0:42)
d#|----------------|
A#|----------------|
F#|----4h5-----4h5-|
C#|-7-------7------|
G#|---8-------8----|
C#|----------------|

d#|----------------|
A#|----------------|
F#|------5--7--7---|
C#|-7--------------|
G#|----8-----------|
C#|----------------|

[Chorus 1] (0:46)
d#|----------------|--------------------| 
A#|----------------|--------------------|
F#|----------------|--------------------|
C#|-8-8-8-8-8-8-8-8|-12-12-12-12-3-3-3-3| (x4)
G#|-8-8-8-8-8-8-8-8|-12-12-12-12-3-3-3-3|
C#|-8-8-8-8-8-8-8-8|-12-12-12-12-3-3-3-3|

[Verse 2] (1:05)
d#|----------------|
A#|----------------|
F#|----4h5-----4h5-|
C#|-7-------7------|(x4)
G#|---8-------8----|
C#|----------------|

d#|----------------|
A#|-6--------------|
F#|-----7--5h7-----|
C#|----------------|
G#|----------------|
C#|----------------|

d#|----------------|
A#|----------------|
F#|----4h5-----4h5-|
C#|-7-------7------|(x3)
G#|---8-------8----|
C#|----------------|

d#|-5--------8p5---|
A#|----8--6--------|
F#|----------------|
C#|----------------|
G#|----------------|
C#|----------------|

[Break] (1:24)
Does not play

[Guitar comes in] (1:28)
d#|----------------|
A#|----------------|
F#|----4h5-----4h5-|
C#|-7-------7------|(x2)
G#|---8-------8----|
C#|----------------|

[Break] (1:32)
Does not play

[Guitar comes in] (1:38)
d#|----------------|
A#|----------------|
F#|----4h5-----4h5-|
C#|-7-------7------|
G#|---8-------8----|
C#|----------------|

d#|----------------|
A#|----------------|
F#|------5--7--7---|
C#|-7--------------|
G#|----8-----------|
C#|----------------|

[Chorus 2] (1:42)
d#|----------------|----------------| 
A#|----------------|----------------|
F#|----------------|---------5-5-5-5|
C#|-8-8-8-8-8-8-8-8|-3-3-3-3-5-5-5-5| (x2)
G#|-8-8-8-8-8-8-8-8|-3-3-3-3-3-3-3-3|
C#|-8-8-8-8-8-8-8-8|-3-3-3-3--------|

d#|----------------|--------------------| 
A#|----------------|--------------------|
F#|----------------|--------------------|
C#|-8-8-8-8-8-8-8-8|-12-12-12-12-3-3-3-3| (x2)
G#|-8-8-8-8-8-8-8-8|-12-12-12-12-3-3-3-3|
C#|-8-8-8-8-8-8-8-8|-12-12-12-12-3-3-3-3|

[Bridge] (2:19)
*PALM MUTED FOR THE WHOLE SECTION*
d#|----------------|----------------| 
A#|----------------|----------------|
F#|----------------|----------------|
C#|-3-3-3-3-3-3-3-3|-3-3-3-3-3-3-3-3| (x3)
G#|-3-3-3-3-3-3-3-3|-3-3-3-3-3-3-3-3|
C#|-3-3-3-3-3-3-3-3|-3-3-3-3-3-3-3-3|

d#|----------------|--------------------|
A#|----------------|--------------------|
F#|----------------|--------------------|
C#|-3-3-3-3-3-3-3-3|-3-3-3-3-12-12-10-10|
G#|-3-3-3-3-3-3-3-3|-3-3-3-3-12-12-10-10|
C#|-3-3-3-3-3-3-3-3|-3-3-3-3-12-12-10-10|

d#|----------------| 
A#|----------------|
F#|----------------|
C#|-8-8-8-8-8-8-8-8| (x2)
G#|-8-8-8-8-8-8-8-8|
C#|-8-8-8-8-8-8-8-8|

d#|----------------|--------------------| 
A#|----------------|--------------------|
F#|----------------|--------------------|
C#|-3-3-3-3-3-3-3-3|-3-3-3-3-12-12-10-10| 
G#|-3-3-3-3-3-3-3-3|-3-3-3-3-12-12-10-10|
C#|-3-3-3-3-3-3-3-3|-3-3-3-3-12-12-10-10|

d#|----------------| 
A#|----------------|
F#|----------------|
C#|-8-8-8-8-8-8-8-8| (x2)
G#|-8-8-8-8-8-8-8-8|
C#|-8-8-8-8-8-8-8-8|

d#|----------------|----------------| 
A#|----------------|----------------|
F#|----------------|----------------|
C#|-3-3-3-3-3-3-3-3|-3-3-3-3-3-3-3-3| 
G#|-3-3-3-3-3-3-3-3|-3-3-3-3-3-3-3-3|
C#|-3-3-3-3-3-3-3-3|-3-3-3-3-3-3-3-3|

[Chorus 3] (3:05)
d#|----------------|--------------------| 
A#|----------------|--------------------|
F#|----------------|--------------------|
C#|-8-8-8-8-8-8-8-8|-12-12-12-12-3-3-3-3| (x4)
G#|-8-8-8-8-8-8-8-8|-12-12-12-12-3-3-3-3|
C#|-8-8-8-8-8-8-8-8|-12-12-12-12-3-3-3-3|

d#|----------------|----------------| 
A#|----------------|----------------|
F#|----------------|---------5-5-5-5|
C#|-8-8-8-8-8-8-8-8|-3-3-3-3-5-5-5-5| (x2)
G#|-8-8-8-8-8-8-8-8|-3-3-3-3-3-3-3-3|
C#|-8-8-8-8-8-8-8-8|-3-3-3-3--------|

d#|----------------|--------------------| 
A#|----------------|--------------------|
F#|----------------|--------------------|
C#|-8-8-8-8-8-8-8-8|-12-12-12-12-3-3-3-3| (x2)
G#|-8-8-8-8-8-8-8-8|-12-12-12-12-3-3-3-3|
C#|-8-8-8-8-8-8-8-8|-12-12-12-12-3-3-3-3|

[Solo] (3:42) 
d#|-------10h13p10---10------10h13p10---|----------10h13p10----10h15-15p13p10|
A#|-10h13---------13----10h13---------13|-15p10h13----------13---------------|
F#|-------------------------------------|------------------------------------|
C#|-------------------------------------|------------------------------------|
G#|-------------------------------------|------------------------------------|
C#|-------------------------------------|------------------------------------|

d#|-------10h13p10---10------10h13p10---|----------10h13p10----10h15-15h17p13|
A#|-10h13---------13----10h13---------13|-15p10h13----------13---------------|
F#|-------------------------------------|------------------------------------|
C#|-------------------------------------|------------------------------------|
G#|-------------------------------------|------------------------------------|
C#|-------------------------------------|------------------------------------|

d#|-------10h13p10---10------10h13p10---|----------10h13p10----10h15-15p13p10|
A#|-10h13---------13----10h13---------13|-15p10h13----------13---------------|
F#|-------------------------------------|------------------------------------|
C#|-------------------------------------|------------------------------------|
G#|-------------------------------------|------------------------------------|
C#|-------------------------------------|------------------------------------|

d#|-------10h13p10---10------10h13p10---|----------10h13p10----10h15-15h17p13|
A#|-10h13---------13----10h13---------13|-15p10h13----------13---------------|
F#|-------------------------------------|------------------------------------|
C#|-------------------------------------|------------------------------------|
G#|-------------------------------------|------------------------------------|
C#|-------------------------------------|------------------------------------|

[Outro] (4:01)
d#|----------------|
A#|----------------|
F#|----4h5-----4h5-|
C#|-7-------7------|(x6)
G#|---8-------8----|
C#|----------------|

Xylophone will keep going after the riff is completed 6 times.
REPEATING, Guitar does NOT play with the xylophone after the riff is completed 6 times.


*****************************

| h - Hammer-On
| p - Pull-Off

*****************************
Suggest correction
Creating personal tab
Creating personal tab
You can edit any tab online and save it as your Personal.

You can edit, replace or remove any tab part or add personal notes – all changes will be seen only by you.

Personal tabs can be accessed anytime from any device, even offline.
Learn more »
Give kudos to tab author, rate the tab!
1 2 3 4 5
comments
print report bad tab
guest
You may want to rate the tab now too:
select rating
Wanna post a correction for this tab? Suggest correction