Oops, an error
Loading. Please wait.

All I Wanted Tab

version 4
version 4

Whole song

Interactive

12,137 views 6 this week
1 commentread comment
1 2 3 4 5
accurate
x 5
add to favorites
launch autoscroll
font size
0
reset
how to read this tab
guitar tuner
Tab Pro tools
  • play this tab
  • loop segment
  • change instrument
  • show fretboard
  • metronome
×
Best way to learn
"All I Wanted"
Autoscroll
slow
fast
+/-
esc
set tempo
stop
Difficulty
intermediate
Paramore: All I Wanted
Album: Brand New Eyes

Hey everyone, First tab here. I saw that every tab for this song says Drop C#. Well I 
a different-ish way to play it and I think it's a LOT easier. Any corrections or comments, 
me. mgenese10201@yahoo.com

Tuning: D, A, D, F#, B E (Drop D with the G string tuned down one half step)

Intro/Verse (Guitar 1)

I---------------------------------------------------------------------------|I
I---------------------------------------------------------------------------|I
I----------0---------------0---------------0---------------0-------------I--| X8
I------2-----2---2-----2-----2---2-----2-----2---2-----2-----2---2----------|I
I----------------------------------2-2---2-----2---4-4---2-----4------------|I
I-0-0----0-----0---4-4---4-----0--------------------------------------------|I

(Take note, at the line "I'll beg you nice from my knees", it changes a little)
As seen here:
I-------------------------------------------------------------------------|I
I-------------------------------------------------------------------------|I
I----------0---------------0---------------0------------------------------|I
I------2-----2---2-----2-----2---2-----2-----2---2-----2-------2----------|I
I----------------------------------2-2---2-----2---4-4---4-0-0---0--------|I
I-0-0----0-----0---4-4---4-----0------------------------------------------|I


Intro (Guitar 2)
|------------------------------------------------------------------------|
|------------------------------------------------------------------------|
|-8------8---7---0------12----10---8------8---7---0----------------------| X2
|------------------------------------------------------------------------|
|----------------------------------------------------------7/9---7/9-----|
|------------------------------------------------------------------------|

Distortion Bridge/Chorus

Guitar 1
|----------------------------------------------|
|----------------------------------------------|
|----------------------------------------------| X2
|-0-----4--------9-----11----------------------|
|-0-----4--------9-----11----------------------|
|-0-----4--------9-----11----------------------|

Guitar 2
|---------------------------------------------|
|---------------------------------------------|
|-10/12--10/12---10/12---10----15---12---10---|
|---------------------------------------------|X4
|--7/9----7/9-----7/9-----7----12---9----7----|
|---------------------------------------------|

(Kind of a stretch, I know. You can just play the bottom or top part if it's too difficult.)

Repeat the intro and verse, including Guitar 2 this time.

Chorus

Solo:
|---------------10---9----------------------------10----9---------|
|-----------------------------------------------------------------|
|-8-----7-----------------10----12-----8-----7--------------10b12-|
|-----------------------------------------------------------------|
|-----------------------------------------------------------------|
|-----------------------------------------------------------------|

Verse 3

Guitar 1
|----------------------------------------------|
|----------------------------------------------|
|----------------------------------------------| X4
|-0-----4--------9-----11----------------------|
|-0-X8--4-X8-----9-X8--11-X8-------------------|
|-0-----4--------9-----11----------------------|

Guitar 2:
Just play the intro the same, except strum 8th notes the whole way

Then at "Maybe then, we'd remember to slow down"
|-10---9---10---12-------------|
|-------------------10-------10|
|------------------------12----| X2
|------------------------------|
|------------------------------|
|------------------------------|

(Vocal Solo)

Chorus

End:

|-------|
|-------|
|-------|
|--0----|
|--0----|
|--0----|

Enjoy!
comments
print report bad tab
1 comment total.
0 reply
guitar-girl21 wrote on June 5 2010, 04:41 pm

hey man, this is awesome (: the dropped G string makes this SO MUCH EASIER! Thanks for posting this! *****

I want to post or [tab]
guest
You may want to rate the tab now too:
select rating
Please do not post tabs as comments. Select "correction" instead!