Oops, an error
Loading. Please wait.

All We Know Is Falling Ukulele Chords

701 views 1 this week
no commentswrite comment
1 2 3 4 5
please rate
add to favorites
launch autoscroll
font size
0
reset
transpose
0
reset
simplify chords
display chords
guitar tuner
Autoscroll
slow
fast
+/-
esc
set tempo
stop
Help us to improve Ultimate-Guitar.com Take our survey!
×
Paramore
All We Know Is Falling
2005 Fueled By Rammen Records
Submitted by: paramore_fans@yahoo.com

Tuning: Standard EADGBe

Tracklist:
01. All We Know
02. Pressure
03. Emergency
04. Brighter
05. Here We Go Again
06. Let This Go
07. Whoa
08. Conspiracy
09. Franklin
10. My Heart

Bonus Tracks:
11. Circle
12. Oh Star
13. My Hero(Foo Fighters Cover)

_____________________________________________

1.) All We Know

Key: G

Tuning: Standard EADGBe

Chords used:

A5-   577xxx
G5-   355xxx
C5-   x355xx
F#5-  244xxx
B5-   x244xx
D5-   x577xx
Em-   022000
C-    x32010
A9-   x02200
D/F#- 2x023x or 254xxx


Verse 1: (Heavy Distortion)
A5-Em-G5-A5                      G5-Em-F#5-G5
             we tried so hard to understand
     G5-F#5-Em------C5(x20)-[strum this Chord 20 times.]        
 but we can't
A5-Em-G5-A5                        G5-Em-F#5-G5
             we held the world out in our hands
     G5-F#5-Em------C5(x20)
 and you ran away
A5-Em-G5-A5                        G5-Em-F#5-G5
             it takes some time to let you go
     G5-F#5-Em------C5(x20)
 and it shows


Chorus:
Em                  C               A9  D
  cause all we know is falling, it falls
Em                  C                 D/F#           Em
  and remember, cause I know that we won't forget it all


Verse 2:
A5-Em-G5-A5                   G5-Em-F#5-G5
            now we can follow you back home
     G5-F#5-Em------C5(x20)
 but we won't
A5-Em-G5-A5                       G5-Em-F#5-G5
            is this what you have waited for
 G5-F#5-Em------C5(x20)
 just to be alone?
A5-Em-G5-A5                       G5-Em-F#5-G5
            it takes some time to let you go
     G5-F#5-Em------C5(x20)
 and it shows

(Repeat Chorus)


Bridge:
D5-B5-C5
         you never
D5-B5-C5
         you never said
D5-B5-C5
         this wasn't what you wanted
D5-B5-C5
      was it? was it?


Hayley: x4
e|--------------
B|--------------
G|-7--4--5------
D|-7--4--5------
A|-5--2--3------
E|--------------

Jason: (2:04)
e|-5~--3~--0-----0-----0-----
B|-----------3-----3-----3---
G|-------------0-----0-----0-
D|---------------------------
A|---------------------------
E|---------------------------

Josh: Harmonics (2:11)
e|-12*---------------
B|-------------------
G|----------5*-------
D|------9*-----------
A|-------------------
E|-------------------

Hayley and Jason: (x2)
e|-------------------
B|----------------------------------
G|-7777777-5-5----------------------
D|-7777777-5-5----22222222-4444444--
A|-5555555-3-3----22222222-5555555--
E|----------------00000000-2222222--

Josh: Harmonics also (This wasn't what you wanted)
e|----------------
B|----------5*----
G|---5*-----------
D|----------------
A|----------------
E|----------------

Hayley and Jason: (x2)
e|--------------------------
B|--------------------------
G|-5555---------------------
D|-5555----22222222-4444444-
A|-3333----22222222-5555555-
E|---------00000000-2222222-

Josh's Solo:
e|----------------------------------------------------------------------
B|----------------------------------------------------------------------
G|----------------------------------------------------------------------
D|-----------------------------------------------------1616161616161616-
A|-------------------1717171717171717-1919191919191919------------------
E|-19191919-17171717----------------------------------------------------

e|----------1919191919-----------------------------1919191919--------------------
B|-20202020------------171717171717171717-20202020-------------------------------
G|------------------------------------------------------------191919191919191919-
D|-------------------------------------------------------------------------------
A|-------------------------------------------------------------------------------
E|-------------------------------------------------------------------------------

e|-------------------------------------------------------
B|-17171717-1919191919-2020202020202020------------------
G|--------------------------------------1616161616161616-
D|-------------------------------------------------------
A|-------------------------------------------------------
E|-------------------------------------------------------


C(Hold)-Em            D/F#
           this isn't what you wanted
C(Hold)-Em            D/F#
           this isn't what you wanted

Solo: C-Em-D/F# (x2)
C5(x20)

(Repeat Chorus)

____________________________________________________________

2.) Pressure

Tuning: Standard EADGBe

Key: D

Chords used:

Bm- x24432
D-  xx0232
G-  320033
A-  x02220
F#- 244322

Intro: Bm-D-G-A (x2)

Guitar 2:
e|--------------------------------------------------------------
B|--------------------------------------------------------------
G|-11--11-11\9-9--14--14-14\11-11--11--11-11\9-9--6--6-6/7\6/7--
D|--x---x--x-------x---x--x--x--x---x---x--x-x-x--x--x-x-x-x-x--
A|--9---9--9\7-7--12--12-12\-9--9---9---9--9\7-7--4--4-4/5\4/5--
E|--------------------------------------------------------------


Verse 1:
Bm G                      D
   tell me where our time went
    F#                   Bm
and if it was time well spent
     G                   D
just don't let me fall asleep
F#             Bm
feeling empty again
               G          
cause I fear I might break
D              F#
  and I fear I can't take it
Bm             G 
  tonight I'll lie awake
D         F#
  feeling empty.


Chorus 1:
      G        D       F#
I can feel the pressure
             G
it's getting closer now
      D      F#    G
we're better off without you
               D       F#
I can feel the pressure
             G
it's getting closer now
      D      F#    G
we're better off without you


Josh: (x2)
      (x3) this part                                    (x4) this part
e|----------17-------------|-----------5/7\5-|----------17-------------
B|----15----------15----15-|----15-----------|----15----------15----15-
G|-14----14----14----14----|-14----14--------|-14----14----14----14----
D|-------------------------|-----------4/5\4-|-------------------------
A|-------------------------|-----------------|-------------------------
E|-------------------------|-----------------|-------------------------


Verse 2:
Bm  G                   D
    now that I'm losing hope
    F#                      Bm
and there's nothing else to show
    G                        D
for all of the days that we spent
F#                Bm
carried away from home
                 G         D
some things I'll never know
             F#         Bm
and I had to let them go
            G        D
I'm sitting all alone
        F#
feeling empty

(Repeat Chorus 1)

Bm
(without you...)

Interlude: Bm-D-G-A (x2)

Bridge:
Bm                 G         D-F#
  some things I'll never know
Bm             G          D-F#
  and I had to let them go
Bm                 G
  some things I'll never know
D              F#         
  and I had to let them go
Bm                G
  but I'm sitting all alone
D         F#   Bm
  feeling empty


Josh: (x10) So in x9 & x10, while doing bridge
e|----------9--------------
B|----10---------10----10--
G|-11----11---11----11-----
D|-------------------------
A|-------------------------
E|-------------------------


Chorus 2:
      G        D       F#
I can feel the pressure
             G
it's getting closer now
      D      F#    G
we're better off without you
               D       F#
I can feel the pressure
             G
it's getting closer now
      D      F#    G        D(hold)
we're better off without me

____________________________________________________

3.) Here We Go Again

Chords used:

A9   - x02200
C#m  - x46654
B/D# - x6444x
E -    022100 or 079900

Intro: A9--C#m (x2)

Guitar 2: / means slide up, \ means slide down, x is dead string
e|-----------------------------------
B|-----------------------------------
G|-16--16\11--13--9--8--8-8/9\8/9----
D|--x---x--x---x--x--x--x-x-x-x-x----
A|-14--14\-9--11--7--6--6-6/7\6/7----
E|-----------------------------------
then
e|-----------------------------------
B|-----------------------------------
G|-16--16\11--13--9--8--8-8/9\8\4----
D|--x---x--x---x--x--x--x-x-x-x-x----
A|-14--14\-9--11--7--6--6-6/7\6\2----
E|-----------------------------------


Verse 1:
A9                    C#m                       A9
  and here we go again, with all the things you said,
                      C#m                    A9
and not a minute spent to think that we'd regret.
                       C#m                        A9
so we just take it back, these words and hold our breath,
           C#m                A9
forget the things we swore we meant.

Guitar 2: (x4)
e|-4--5--7---7---7---7---7---7----
B|---------5---5---5---5---5---5--
G|--------------------------------
D|--------------------------------
A|--------------------------------
E|--------------------------------
then this one before chorus
e|-4(x4)-5(x4)-7(x4)-5(x2)-4--
B|----------------------------
G|----------------------------
D|----------------------------
A|----------------------------
E|----------------------------

Chorus:
C#m              B/D#        E   A9
  I'll write you just to let you know
           C#m
that I'm alright.
              B/D#   E      A9
can't say I'm sad to see you go,
             C#m       B/D#
cause I'm not. (no I'm not...)
     E      A9 C#m-B/D#-A9
well I'm not.


Interlude 1: A9--C#m--A9--C#m


Verse 2:
A9                    C#m                      A9
  and here we go again, with all the things we did.
                     C#m                     A9
and now I'm wondering, just who would I have been,
                       C#m                   A9
to be the one attatched at all times to your hip.
           C#m                A9
forget the things we swore we meant.


(Repeat Chorus)

(Repeat Intrlude 1)

Interlude 2: A9--C#m (x2) A9


Bridge:
C#m             B/D#       A9
  I'll write you to let you know that I'm alright.
C#m             B/D#          A9
  can't say I'm sad to see you go,
             C#m       B/D#  A9
cause I'm not. (no I'm not...)
             C#m-B/D#  A9  
well I'm not.      I'm not


Outro:
                                             C#m
and here we go again, with all the things we said,
                                            A9
and not a minute spent to think that we'd regret
                                                 C#m
(so we just take it back, so we just take it back,
                                                A9
so we just take it back, so we just take it back,
                                                C#m
so we just take it back, so we just take it back,
                                                A9
so we just take it back, so we just take it back,
                                                C#m-B/D#-A9(Hold)
so we just take it back, so we just take it back,

________________________________________________________

4.) Brighter

Key: A

Tuning: Standard EADGBe

Chords used:
A -    x02220
F#m -  244222
D -    xx0232
E -    022100
E/G# - 476xxx


Intro:

Part 1: A

Guitar 2:
e|-----4-4-----4-4----------
B|-----5-5-----5-5----------
G|-1h2-----1h2--------------
D|-------------------------- (x2)
A|-----------------4h5p4h5--
E|--------------------------

Part 2: A--F#m--D--E

Guitar 2:
      x2 this part             at time 0:013 this part
e|-------------------------|-----5---7---9----5-5-x--4--
B|-------------------------|-2-3---3---5---5------x-----
G|-------------------------|----------------------x-----
D|-6h7p6-6-6h7p6-----------|----------------------x-----
A|----------------4h5p4h5--|----------------------x-----
E|-------------------------|----------------------x-----


Verse 1:
F#m          E      D
  so this is how it goes
      F#m            E     D
well I, I would have never known
F#m         E      D
  and if it ends today
well I'll still say that
F#m       E/G#          D
you shine brighter than anyone


Guitar 2:
   x2 this part
e|-------5--------|-------5---7---5-------7---5------
B|---5------5---5-|---5---------------5-----------5--
G|----------------|----------------------------------
D|-7---7------7---|-7---7---7---7---7---7---7---7----
A|----------------|----------------------------------
E|----------------|----------------------------------


Chorus:
A                                 F#m
now I think we're taking this too far
                    D
don't you know that it's not this hard
          E
well it's not this hard
A
but if you take what's yours
           F#m
and I take mine
must we go there
D
please, not this time
    E
no, not this time


Verse 2:
F#m            E        D
  well this is not your fault
                   F#m
but if I'm without you then
       E        D
I will feel so small
F#m          E       D
  and if you have to go
                       F#m
we'll always know that you
      E/G#          D
shine brighter than anyone does


(Repeat Chorus)


Interlude: F#m--E--D--E x2

Guitar 2:
e|----------------17~-----------------------
B|-12/14---------------12/14----------------
G|-------14-13-14------------14-13----------
D|---------------------------------16~--14--
A|------------------------------------------
E|------------------------------------------

e|----------------17~--17-16----------------
B|-12/14---------------------19-14-15-17~---
G|-------14-13-14---------------------------
D|------------------------------------------
A|------------------------------------------
E|------------------------------------------


Bridge:
   F#m    E D      E
if you run away now
     F#m     E/G#   D(hold)
will you come back around?


Verse 3:
F#m          E    D
  and if you ran away
                   F#m
I'd still wave goodbye
             E           D(hold)
watching you shine bright

(Repeat Chorus)
(Repeat Interlude)


Outro:
F#m                 E
  and I'll wave goodbye
             D           E
watching you shine bright
F#m                 E/G#  D(hold)
  and I'll wave goodbye tonight

______________________________________________________

5.) Emergency

Key: A

Tuning: Standard EADGBe

Chords used:
D -    xx0232
E -    022100
A -    x02220
F#m  - 244222
Bm   - x24432
A/C# - x4222x 


Intro: D--

Guitar 2:
e|-------9-----9-----9-------------7-----7-----7--------
B|---7-----7-----7-----7---7---7-----7-----7-----7---7--
G|-----7-----7-----7-----7-------7-----7-----7-----7----
D|-0-------------------------0--------------------------
A|------------------------------------------------------
E|------------------------------------------------------

E-F#m--E E-F#m--E

Verse 1:
D                                                           E-F#m
  I think we have an emergency, I think we have an emergency
                                  E          E-F#m                  E
if you thought I'd leave then you we're wrong cause I won't stop holding on
D                                              E-F#m
  so are you listening, so are you watching me?
                                  E          E-F#m                  E
if you thought I'd leave then you we're wrong cause I won't stop holding on.
D
  this is an emergency, so are you listening.
      E-F#m         E    E-F#m       E
and I can't pretend that I don't see this.


Refrain:
E                          F#m
  but it's really not your fault,
                     D
when no one cares to talk about it,
              Bm-A/C#
talk about it.


Chorus:
Bm           D         F#m
  cause I've seen love die,
    A             Bm
way too many times
          D             F#m  E
when it deserved to be alive.
Bm         D        F#m
  and I've seen you cry,
    A             Bm
way too many times
           D             F#m E
when you deserved to be alive,
 D
alive.


Verse 2:
E-F#m                  E             E-F#m             E
  so you give up every chance you get, just to feel new again.
D                                                           E-F#m
  I think we have an emergency. I think we have an emergency.
                             E      E-F#m                    E
and you do your best to show me love, but you don't know what love is.
D
  so are you listening, so are you watching me.
E-F#m                  E    E-F#m       E
  well I can't pretend that I don't see this.


(Repeat Refrain and Chorus)


Bridge:
 E                 F#m
Scars they will not
D
fade away.

Jason guitar solo while doing this chords
E--F#m--D (x2)

Guitar Solo:
e|-----------------------------------------------
B|-----------------------------------------------
G|----------13-14-13-------------13-14-13--------
D|-------14----------14-------14----------14-----
A|-12-14----------------12-14----------------14--
E|-----------------------------------------------

e|----------------------------------------
B|-12--14--------------12--14-------------
G|--------14------------------14--13--13--
D|------------14--h16---------------------
A|----------------------------------------
E|----------------------------------------

e|-------------------------------12-------
B|-------------------------12-14----------
G|----------13-14-13----14-------------14-
D|-------14----------14-------------------
A|-12-14----------------------------------
E|----------------------------------------

e|17--16--------------17--16--------------
B|-------17------------------17-----------
G|----------18------------------18--------
D|--------------h16-----------------h16---
A|----------------------------------------
E|----------------------------------------

E F#m
     when no one cares
   D
to talk about it
             Bm C#m
talk about it


(Repeat Chorus)

_________________________________________________

6.) Let This Go

Key: F#

Tuning: Standard on both guitars

Chords used:

D#m -   x68876
F#-     244322    
B-      x24442   
G#m -   466444 
F#/Bb - 143xxx


Intro:

Part 1:

Guitar 1:
e|-------14-------14-|-------16-------16-|-------14-------14-
B|----12-------12----|----12-------12----|----12-------12----
G|-15-------15-------|-15-------15-------|-15-------15-------
D|-------------------|-------------------|------------------- (x2)
A|-------------------|-------------------|-------------------
E|-------------------|-------------------|-------------------

Guitar 2: Chords
D#m-F#-B (x2)

Part 2:

Guitar 1:
e-----------9-7---6-7---6-7---6-7-------
B---------7-----7-----7-----7-----------
G---------------------------------------
D--------------------------------------- (x2)
A---------------------------------------
E---------------------------------------

Guitar 2: Chords
B-G#m-- (x2)

Verse 1:
B    G#m                 B   G#m
  Maybe if my heart stops beating
                 D#m
it won't hurt this much

Guitar 2:
e|--------------------
B|--------7-6---------
G|------------6-6-----
D|----------------8-8-
A|--------------------
E|--------------------

   B  G#m               B   G#m             D#m
and never will I have to answer again to anyone

Guitar 2:
e|--------------------
B|--------7-6---------
G|------------6-6-----
D|----------------8-8-
A|--------------------
E|--------------------

B      G#m          B    G#m
please don't get me wrong


Chorus:
        F#                  B
because I'll never let this go
    G#m              F#/Bb         B
but I can't find the words to tell you
  F#                      B
I don't want to be------alone
    G#m             F#/Bb        B
but now I feel like I don't know you


Verse 2:
B     G#m                    B G#m
  One day you'll get sick of saying
                    D#m
that everything's alright

Guitar 2:
e|--------------------
B|--------7-6---------
G|------------6-6-----
D|----------------8-8-
A|--------------------
E|--------------------

   B   G#m                   B   G#m 
and by then I'm sure I'll pre-tending
                 D#m
just like I am tonight

Guitar 2:
e|--------------------
B|--------7-6---------
G|------------6-6-----
D|----------------8-8-
A|--------------------
E|--------------------

B      G#m          B    G#m
please don't get me wrong

(Repeat chorus)

Bridge: (Repeat Intro Part 1 pattern)
D#m   F#/Bb B
  let this  go
D#m   F#   B
  let this go

Solo:

Guitar 2:

e|-----2-|-------|-----2-|-4-2-2-|-----2-|-------|---------
B|-------|-------|-------|-------|-------|-------|---------
G|-3-4---|-3-4-1-|-3-4---|-------|-3-4---|-3-4-1-|----1--3-
D|-------|-------|-------|-------|-------|-------|-4------- (x2)
A|-------|-------|-------|-------|-------|-------|---------
E|-------|-------|-------|-------|-------|-------|---------

Guitar 2:

D#m-F#/Bb-B--D#m-F#-B (x2)

(Repeat Chorus)

Coda:

    G#m             F#/Bb        B(Hold)
but now I feel like I don't know you

______________________________________________________

7. Whoa

Key: E

Chords used:
AM7-  x02120
E-    022100
B-    x24442
G#m-  466444
A-    577655 or x02220
B/D#- x644xx 

Intro: AM7-E-B (x2)

Verse 1:
AM7              E
  I've hoped for change
        B           AM7
it gets better everyday
               E
I've hoped for change
    B                AM7
but still I feel the same
                  E
there's something wrong
      B         AM7
cause everybody knows
                           E  B
that we can do this on our own.


Chorus:
G#m                       A
  and we've got everybody singing
   E
whoa, whoa, whoa, whoa
G#m                       A
  and we've got everybody singing
   E                   B/D#(Hold)
whoa, whoa, whoa, whoa.


Verse 2:
AM7           E
  we're doing fine
            B           AM7
and it gets better everytime
            E
we're doing fine
    B              AM7
but I'll let you decide
                  E
there's something wrong
      B         AM7
cause everybody knows
                           E  B
that we can do this on our own

(Repeat chorus)

Bridge:
A             E
  and I'll confess
           G#m         A      E-G#m
that I can be a little selfish
A           E
  yeah I'll admit
             G#m            A
I don't want you to help me through this
        E             G#m
I don't want to start over again

Interlude: A-E-G#m (x2)

E-G#m                        A         E
     and we've got everybody singing...

(Repeat Chorus)
(Repeat Bridge)

_________________________________________________

8.) Conspiracy

Key: F

Chords used:
Bb9- x13311
Dm7- xx0211
C-   x32010
F-   133211
Gm-  355333

Intro: 

Part 1:

Guitar 1:
Bb9-Dm7 (x2)

Guitar 2:
              Bb9                                  Dm7
e|-------8----------8-----------------|-------------------5---5-
B|---------10---------10----10----10--|---6-5-6---6-5-6-6---6---
G|-10-10------10-10------10----10-----|-7-------7--------------- 
D|------------------------------------|-------------------------(x2)
A|------------------------------------|-------------------------
E|------------------------------------|-------------------------

Guitar 3: (at time 0:07)

e|-15(x3)-12(x3)-------------------------------------
B|------------------------13----------------------13-
G|---------------14h15p14-----------------15--14-----
D|----------------------------14h15p14-14------------
A|---------------------------------------------------
E|---------------------------------------------------

Part 2: Bb9---C-F-Dm7

Verse 1:
Bb9
  please speak softly
Dm7
  for they will hear us
Bb9
  and they'll find out
Dm7
  why we don't trust them
Bb9
  speak out dear
Dm7
  cause I cannot hear you
Bb9
  I need to know
Dm7
  why we don't trust them

Guitar 2:
e|-----------------------------------
B|-----------------------------------
G|-----------------------------------
D|----------------------------------- (x2)
A|-3/8--3/8-3/10-3/10-10/12/13\12----
E|-----------------------------------

Guitar 3:
E|-12-12-12-12-12-12-13-13-13-13-13-13-15-15-15-15-15-15-17-17-17-17-17-17-
B|-------------------------------------------------------------------------
G|-------------------------------------------------------------------------
D|-------------------------------------------------------------------------
A|-------------------------------------------------------------------------
E|-------------------------------------------------------------------------


Chorus:
Bb9
  explain to me
             C     F         Dm7
  this conspiracy against me yeah
Bb9
  and tell me how
               C    F  Dm7
  I've lost my power   oh yeah


Verse 2:
Bb9
  where can I turn
Dm7
  cause I need something more
Bb9
  surrounded by uncertainty
Dm7
  I'm so unsure
Bb9
  tell me why
Dm7
  I feel so alone
Bb9
  cause I need to know
Dm7
  to whom do I owe

(Repeat Chorus)


Bridge:
Gm         Bb9             Dm7--Bb9
  I thought that we'd make it
Gm                Bb9                Dm7--Bb9
  because you said that we'd make it through
Gm                   Bb9
  and when all security fails
        Dm7              Bb9
we'd be there to help me through

Guitar 3: In because you said
           x2 this bar
e|-15(x3)-12(x3)--------------------|-15(x3)-12(x3)--------15(x3)-12(x2)--------
B|----------------------------------|-------------------------------------------
G|---------------14(x6)-14h15p14-14-|---------------14(x3)---------------14(x3)-
D|----------------------------------|-------------------------------------------
A|----------------------------------|-------------------------------------------
E|----------------------------------|-------------------------------------------
                                                       x3 this bar
e|-17(x3)---------------17(x3)----------------|-15(x3)-12(x3)--------15(x3)-12(x2)--------
B|--------15(x3)---------------15(x2)---------|-------------------------------------------
G|---------------14(x3)---------------14(x3)--|---------------14(x3)---------------14(x3)-
D|--------------------------------------------|-------------------------------------------
A|--------------------------------------------|-------------------------------------------
E|--------------------------------------------|-------------------------------------------

(Repeat Chorus)

(Repeat Intro part 1 only all 3 guitars)

(I've lost my power...)

__________________________________________________________

9.) Franklin

Key: C

Chords used:

Am-   x02210
C-    x32010
F-    133211
G/B-  x20003
G-    320033
Dm7-  xx0211
Dm-   xx0231
FM7-  xx3210

Verse 1:
Am          C          
   and when we get home
F           C        G/B
  I know we won't be home at all
Am              C
  this place we live
F       C         G/B
  it is not where we belong
Am               C
  and I miss who we were
F                   C        G/B
  and the town that we could call our own
Am      C         
  going back to get away
F       C    G/B
  after everything has changed

Chorus:
F                        Am
cause you remind me of a time 
            G        F
when we were so alive (everything has changed...)
                    Am
do you remember that
         G/B        F
do you remember that (everything has changed...)
                        Am            G           F
could you help me push aside all that I have ever wanted

(everything has changed...)
                    Am
do you remember that
       G/B
do you remember that

Post Chorus 1:
e|-3-----3-----3-----3---------0-------
B|---0-1---0-1---0-1---0-1-1-3---3-----
G|-------------------------------------
D|-------------------------------------
A|-------------------------------------
E|-------------------------------------

Verse 2:
Am      C
  so we stand here now
F            C        G/B
  and no one knows us at all
Am            C 
  I won't get used to this
F             C       G/B
  I won't get used to being gone
Am          C      
  and going back won't feel the same
F    C  G/B
  if we aren't staying
Am      C
  going back to get away
F       C    G/B
  after everything has changed.

(Repeat Chorus)


Post Chorus 2:
e|-------0------
B|---1-----1----
G|-0---0-----0--
D|-------------- (x16)
A|--------------
E|--------------

F               Dm7
  taking up our time (x3)

F
  taking up our time
        Am
we can't go back

we can't go back at all
F
  taking up our time
        Dm
we can't go back

we can't go back at all
F
  taking up our time
        Am
we can't go back

we can't go back at all
F
  it's taking up our time
Dm
  taking up our time.


Coda:
FM7
  cause you remind me of a time 
Am            G/B
  when we were so alive
FM7
  do you remember that
Am         G/B        FM7
  do you remember that

_______________________________________________________

10.) My Heart

Tuning: Standard EADGBe

Key: E

Chords used:
E -   022100
A9-   x02200
C#m - x46654
G#m - 466544
B   - x24442

Intro: E--A9----C#m--G#m--A9 (x2)

Guitar 2:
E--4-4-4-7-2-2-2/4-4-4-4-4-4-----------------------|
B--------------------------------------------------|
G--------------------------------------------------|
D--------------------------------------------------|
A--------------------------------------------------|
E--------------------------------------------------|

E--7-4-4-2-2-2-7-7-7-7-7-7-------------------------|
B--------------------------------------------------|
G--------------------------------------------------|
D--------------------------------------------------|
A--------------------------------------------------|
E--------------------------------------------------|

E--4-4-4-7-2-2-2/4-4-4-4-4-4-----------------------|
B--------------------------------------------------|
G--------------------------------------------------|
D--------------------------------------------------|
A--------------------------------------------------|
E--------------------------------------------------|

E--7-4-4-2-2-2-0-----------------------------------|
B--------------------------------------------------|
G--------------------------------------------------|
D--------------------------------------------------|
A--------------------------------------------------|
E--------------------------------------------------|

Verse 1:
C#m    B          A9          C#m   B    A9
  I am finding out that maybe I was wrong
C#m           B          A9              C#m   B   A9
  that I have fallen down and I can't do this alone
C#m    G#m  A9         C#m          G#m    A9
  stay with me this is what I need, please.


Chorus:
E           A9            C#m      G#m        A9
  sing us a song and we'll sing it back to you
E                A9                     C#m        G#m A9
  we could sing alone but what would it be without you?


Verse 2:
C#m    B          A9        C#m     B   A9
  I am nothing now and it's been so long
C#m          B            A9               C#m  B   A9
  since I've heard a sound the sound of my only home
C#m    G#m A9         C#m  G#m A
  this time I will be listening

(Repeat Chorus)


Interlude: C#m--E--A9----B

Guitar 2: at E
e|-4--2--7--2--4--0-
B|------------------
G|------------------
D|------------------
A|------------------
E|------------------


Bridge:
C#m                  E                  A9--B
  this heart it beats beats for only you
C#m                  E                  A9--B
  this heart it beats beats for only you

YOU!!<-- (Josh screamed)
C#m                  E                  A9                B
  this heart it beats beats for only you my heart is yours
C#m                  E                  A9
  this heart it beats beats for only you.
                   B
  my heart is yours. (my heart beats for you...)<--screamed again

(This time Josh is creaming while Hayley is singing with same lyrics)
C#m                  E                  A9                B
  this heart it beats beats for only you my heart is yours


this heart it beats beats for only you my heart,my heart is yours
(While Jason sings at parenthesis)
C#m
  (please don't go now) 
E
  (please don't fade away)
A9
  (please don't go now)
                     B9
  (please don't fade away)


(Josh screams at parenthesis)
C#m
  (please don't go now)
E 
  (please don't fade away) my heart is yours...
A9
  (please don't go now)
                     B9
  (please don't fade away) my heart is yours...
C#m
  (please don't go now)
E 
  (please don't fade away) my heart is yours...
A9
  (please don't go now)
                     B9                C#m(hold)
  (please don't fade away) my heart is...

___________________________________________________

11.) Circle

Paramore
Circle

Tuning: Standard EADGBe

Chords used for guitar 2:
G#    - 466544
D#/G  - 365xxx
Fm     -133111
C#M7  - x46566
D#    - x68886
C#    - x46664

Intro:

Guitar 1:
e|-8-8--6-6--1-1--3-3----
B|-9-9--8-8--3-3--4-4----
G|-----------------------
D|----------------------- (x2)
A|-----------------------
E|-----------------------

Guitar 2: Chorded
   G#5  D#/G F5   D#5
e|------------------------
B|------------------------
G|----------------8-8----- (x2)
D|-6-6--5-5--3-3--8-8-----
A|-6-6--6-6--3-3--6-6-----
E|-4-4--5-5--1-1----------

Guitar 3: Then this part will enter before the verse
e|-----6------
B|---4---4----
G|-5----------
D|------------
A|------------
E|------------

Guitar 3: While guitar 2 is playing the verses, use this GM7 chord
e|---3------
B|---4------
G|---5------
D|---6------
A|---x------
E|---x------


Verse 1:
G#   D#/G Fm  D#  G#5-D#/G-Fm-D#    G#-D#/G-Fm-D# G#-D#/G-Fm-D#
take this time            to realize
         G#  D#/G Fm  D#       G#-D#/G-Fm
that you always shut your eyes
       D#       G# -D#/G-Fm -D#  G# 
in the midst of trial
    D#/G  Fm   D#
and everything is always right


Refrain:
Fm
  and I think that it's time 
this battle must be won
but you pushed it aside pushed
it aside pretend that it's gone


Guitar 2: Will enter at "but you pushed..."
e|-------------------------11-11-------------------------------
B|---------------------8h9-------11p9p8---------------------9~-
G|-10-10-10-10-8-8-8-8------------------10-10-10-10-8-8-8-8----
D|-------------------------------------------------------------
A|-------------------------------------------------------------
E|-------------------------------------------------------------


Chorus: x2
C#M7                Fm
  this circle never ends
C#M7       Fm      C#M7                    Fm
  and it's time you just face it, don't pretend
C#M7         Fm
  that it's over


Interlude: D#5

Guitar 2:
e|-----11---11---
B|-8-9----9----9-
G|---------------
D|--------------- (x4)
A|---------------
E|---------------


Verse 2:
G#   D#/G Fm D#  G#5-D#/G-Fm-D#     G# -D#/G-Fm-D# G# -D#/G-Fm-D# 
take this time to realize
         G#  D#/G Fm D#       G#-D#/G-Fm
that you always force a smile
       D#       G#-D#/G-Fm-D# G#
in the midst of trial
    D#/G  Fm  D# 
and everything is always right


(Repeat Refrain and Chorus)


Bridge: 
D#             C#
  and it never ends
D#         C#
  it never ends
D#             C#
  and it never ends
D#             C#
  no, it never ends

Guitar 2:
e|----------15--------------
B|----16----------16----16--
G|-15----15----15----15-----
D|-------------------------- (x2)
A|--------------------------
E|--------------------------

Guitar 2: cont
e|---------8-----------
B|----9---------9----9-
G|-10---10---10---10---
D|--------------------- (x2)
A|---------------------
E|---------------------


(Repeat Chorus)

____________________________________________________

12.) Oh Star

Tuning: Standard EADGBe

Key: C

Chords used:
C   -  x32010
Am7 -  x02010
FM7 -  1x3210
Am  -  x03210
F   -  133211
G   -  320003 or 320033

Verse 1:
C              Am7
  Oh star fall down on me
C               Am7
  Let me make a wish upon you
C          Am7
  Hold on, let me think
C                   Am7
  Think of what I'm wishing for


Refrain:
FM7    C
  Wait, don't go away.
FM7       C
  Just not yet.
FM7              C
  Cause I thought, I had it.
FM7        C
  But I forget.


Chorus :
Am                    C
  And I won't let you fall away, 
       F
From me. You will never fade.
Am                    C
  And I won't let you fall away.
       F                              C--Am7(x2)
From me. You will never fade away from me.


Verse 2:
C                 Am7
  And now I let my dreams consume me,
C                     Am7
  And tell me what to think.
C             Am7
  But hold on, Hold on.
C           Am7
  What am I dreaming?


(Repeat refrain and Chorus)


Bridge:

Guitar 1: C--Am7--C--F-G-Am-C

Guitar 2:
e|-15-15-15----------------------------19-19-19-------------------------
B|----------17-17-17----------------------------20-20-20----------------
G|-------------------17-17-17-16h17-17-------------------16-16-16-17-16-
D|----------------------------------------------------------------------
A|----------------------------------------------------------------------
E|----------------------------------------------------------------------

e|-19-19-19-------------------------------------------------------------
B|----------20-20-20----------------------------------------------------
G|-------------------16-16-16-17-16-------------------------------------
D|----------------------------------3-3-3-3-5-5-5-5-7-7-7-7-10-10-10-10-
A|----------------------------------3-3-3-3-5-5-5-5-7-7-7-7-10-10-10-10-
E|----------------------------------1-1-1-1-3-3-3-3-5-5-5-5--8--8--8--8-

Do this part on guitar 2 while doing the outro until fade out
e|-15-15-------------------------------------
B|-------17-17-------------------------------
G|-------------16-16-17-17-16-16-14-14-------
D|-------------------------------------17~---
A|-------------------------------------------
E|-------------------------------------------

Outro:
Am                    C
  And I won't let you fall away.
F
  You will never fade away.
Am                    C
  And I won't let you fall away from me,
F                C--Am7
  You will never...
C              Am7     Fm7(Hold)
  Oh star fall down on me.

_____________________________________________________

13.) My Hero

Tuning: Standard EADGBe on 3 guitars and each has a capo on 1st fret

Chords used:
G -  320033
Em - 022000
Am - x02210
C -  x32010

Guitar 1: Hayley Williams
Guitar 2: Hunter Davis
Guitar 3: Josh Farro

Intro:

Hayley & Hunter

G--Em--G--Em--G--Em--Am(Hold)--C(Let Ring)

Josh
          x4 this bar         then this one
e|-3-3-3-3-0h2---0h2-----|---------------
B|-3-3-3-3---3-----3---0-|---------------
G|-------------0-----0---|---------------
D|-----------------------|------2-0------
A|-----------------------|-0--------2-3~-
E|-----------------------|----0----------


Verse 1: Hayley All chords
G      Em             G          Em
  too alarming now to talk it out
G           Em                G           Em
  take your pictures down and shake it out
G          Em           G       Em
  truth or consequence, say it aloud
G          Em       G        Em
  use that evidence race it around


Hunter's Part in Verses:
        x4 this bar               x4 this bar
e|-------------------------|----------3--------3-------
B|-3------3-3------0-------|-3------3----3---3---3---3-
G|----0--------0-----0---0-|----0----------0-------0---
D|-5----5---2----2-----2---|-5----5---2----------------
A|-------------------------|---------------------------
E|-------------------------|---------------------------


Chorus: (Hayley & Hunter are same here)
C                                    G
  there goes my hero watch him as he goes
C                                 G
  there goes my hero he's ordinary


Josh's Part in Chorus:
           x3 this bar
e|---------------------------------|---------------------------------
B|---------------------------------|-0-0-0-0---------0-0-0-0---------
G|-----------------0-0-0-0-2-2-0-0-|---------2-2-2-2-----------------
D|-2-2-2-2-4-4-4-4-----------------|-------------------------4-4-4-4-
A|---------------------------------|---------------------------------
E|---------------------------------|---------------------------------


Post chorus:

Josh:
e|---------------
B|---------------
G|---------------
D|------2-0------
A|-0--------2-3~-
E|----0----------


Verse 2:
G           Em           G           Em
  don't the best of them bleed it out
G           Em           G        Em
  while the rest of them peter out
G          Em           G       Em
  truth or consequence, say it aloud
G          Em       G        Em
  use that evidence race it around


(Repeat chorus)


Interlude:

Hayley: G--G--G--Em (x2) G(hold)

Hunter:
            x 4 this bar
e|---------------------------------|-------
B|-3-3-3-3-3-3-3-3-3-3-3-3-3-3-3-3-|-0~----
G|---------------------------------|-------
D|---------------------------------|-------
A|---------------------------------|-------
E|---------------------------------|-------

Josh:
     x4 this bar       palm mute in this bar x2
e|-2--3-2----------|---------------------------------
B|--------3--------|---------------------------------
G|-----------------|---------------------------------
D|-----------------|-----5-5-5-5-5-5-5-5-5-5-5-5-5-5-
A|-----------------|-----5-5-5-5-5-5-5-5-5-5-5-5-5-5-
E|-----------------|-----3-3-3-3-3-3-3-3-3-3-3-3-3-3-

Verse 3:
G          Em
  kudos my hero
G               Em
leaving all the best
G             Em
  you know my hero
    G          Em
the one that's on


(Repeat chorus)
Suggest correction
What's this?
You can suggest a correction to this tab. Community and Mods will review your correction and vote to approve or reject it.
comments
We did not receive enough feedback on this tab! Please rate:
print report bad tab
1 2 3 4 5
guest
You may want to rate the tab now too:
select rating
Please do not post tabs as comments. Select "correction" instead!