Oops, an error
Loading. Please wait.

All We Know Tab

version 3
version 3

Whole song

Interactive

1,942 views 1 this week
no commentswrite comment
1 2 3 4 5
please rate
add to favorites
launch autoscroll
font size
0
reset
how to read this tab
guitar tuner
Tab Pro tools
  • play this tab
  • loop segment
  • change instrument
  • show fretboard
  • metronome
×
Best way to learn
"All We Know"
Autoscroll
slow
fast
+/-
esc
set tempo
stop
Contributor
hey. this is my first tab so i hope its alright. enjoy! 


standard tuning

. palm muting
< >  harmonic 





verse 

e|-----------2--2---2-2-2-2-2-2-2-2-2-2------| 
B|-----------2--2---2-2-2-2-2-2-2-2-2-2------|   
G|-----------2--2---2-2-2-2-2-2-2-2-2-2------|
D|-----------2--2---2-2-2-2-2-2-2-2-2-2------|
A|-----------0--0---0-0-0-0-0-0-0-0-0-0------|
E|--3-0-3------------------------------------|
                    . . . . . . . . . .         
  
e|-------------------------------------------|
B|-------------------------------------------|
G|-------------------------------------------|       
D|-------------------------------------------|       
A|----------5--5---5-5-5-5-5-5-5-5-5-5-------|    
E|--3-0-3---3--3---3-3-3-3-3-3-3-3-3-3-------|
                   . . . . . . . . . . 


e|---------------------------------------------------------|
B|---------------------------------------------------------|
G|---------------------------------------------------------|
D|----------5-5-5-5-5--5-5-5--5--5-5--5-5-5-5-5--5-5-5--5--|
A|----------3-3-3-3-3--3-3-3--3--3-3--3-3-3-3-3--3-3-3--3--|
E|--3-0-3--------------------------------------------------|       
                                                              past 3 parts     
                                                              x2, then 


e|----------2--2--|--2--|----------|--3--|
B|----------2--2--|--2--|----------|--3--|
G|----------2--2--|--2--|----------|--0--|
D|----------2--2--|--2--|----------|--0--|
A|----------0--0--|--0--|---4-4-4--|--2--|
E|--3-0-3---------|-----|---2-2-2--|--3--|
                     . x10  . . .     . x13


e|----------0-0-0-0-0--0-0-0--0--0-0--0-0-0-0-0--0-0-0--0--|
B|----------1-1-1-1-1--1-1-1--1--1-1--1-1-1-1-1--1-1-1--1--|
G|----------0-0-0-0-0--0-0-0--0--0-0--0-0-0-0-0--0-0-0--0--|
D|----------2-2-2-2-2--2-2-2--2--2-2--2-2-2-2-2--2-2-2--2--|
A|----------3-3-3-3-3--3-3-3--3--3-3--3-3-3-3-3--3-3-3--3--|
E|--3-0-3--------------------------------------------------|


  
chorus

e|--0-0--0-0-0-0-0-0-0-0-0-0-0-0-0-0-0-0-0-0-0-0-0-0-0-0-0-0--|
B|--0-0--0-0-0-0-0-0-0-0-0-0-0-0-0-1-1-1-1-1-1-1-1-1-1-1-1-1--|
G|--1-1--1-1-1-1-1-1-1-1-1-1-1-1-1-0-0-0-0-0-0-0-0-0-0-0-0-0--|
D|--2-2--2-2-2-2-2-2-2-2-2-2-2-2-2-2-2-2-2-2-2-2-2-2-2-2-2-2--|
A|--2-2--1-1-1-1-1-1-1-1-1-1-1-1-1-3-3-3-3-3-3-3-3-3-3-3-3-3--|
E|------------------------------------------------------------|
                                                                 
                                            x2
e|---0------2------2------3------|
B|---0------2------3------3------|
G|---1------2------2------0------|
D|---2------2------0------0------|
A|---2------0------0------2------|
E|------------------------3------|


e|--0-0--0-0-0-0-0-0-0-0-0-0------|
B|--0-0--0-0-0-0-0-0-0-0-0-0------|
G|--1-1--1-1-1-1-1-1-1-1-1-1------|
D|--2-2--2-2-2-2-2-2-2-2-2-2------|
A|--2-2--2-2-2-2-2-2-2-2-2-2------|
E|--------------------------------|



verse

e|-----------2--2---2-2-2-2-2-2-2-2-2-2------| 
B|-----------2--2---2-2-2-2-2-2-2-2-2-2------|   
G|-----------2--2---2-2-2-2-2-2-2-2-2-2------|
D|-----------2--2---2-2-2-2-2-2-2-2-2-2------|
A|-----------0--0---0-0-0-0-0-0-0-0-0-0------|
E|--3-0-3------------------------------------|
                    . . . . . . . . . .         
  
e|-------------------------------------------|
B|-------------------------------------------|
G|-------------------------------------------|       
D|-------------------------------------------|       
A|----------5--5---5-5-5-5-5-5-5-5-5-5-------|    
E|--3-0-3---3--3---3-3-3-3-3-3-3-3-3-3-------|
                   . . . . . . . . . . 


e|---------------------------------------------------------|
B|---------------------------------------------------------|
G|---------------------------------------------------------|
D|----------5-5-5-5-5--5-5-5--5--5-5--5-5-5-5-5--5-5-5--5--|
A|----------3-3-3-3-3--3-3-3--3--3-3--3-3-3-3-3--3-3-3--3--|
E|--3-0-3--------------------------------------------------|


e|-----------2--2---2-2-2-2-2-2-2-2-2-2------| 
B|-----------2--2---2-2-2-2-2-2-2-2-2-2------|   
G|-----------2--2---2-2-2-2-2-2-2-2-2-2------|
D|-----------2--2---2-2-2-2-2-2-2-2-2-2------|
A|-----------0--0---0-0-0-0-0-0-0-0-0-0------|
E|--3-0-3------------------------------------|
                    . . . . . . . . . .         
  
e|-------------------------------------------|
B|-------------------------------------------|
G|-------------------------------------------|       
D|-------------------------------------------|       
A|----------5--5---5-5-5-5-5-5-5-5-5-5-------|    
E|--3-0-3---3--3---3-3-3-3-3-3-3-3-3-3-------|
                   . . . . . . . . . . 


e|-----------------------------------------------------------|
B|-----------------------------------------------------------|
G|-----------------------------------------------------------|
D|----------5-5-5-5-5-5--5-5-5--5--5-5--5-5-5-5-5--5-5-5--5--|
A|----------3-3-3-3-3-3--3-3-3--3--3-3--3-3-3-3-3--3-3-3--3--|
E|--3-0-3----------------------------------------------------|


e|----------2--2--|--2--|----------|--3--|
B|----------2--2--|--2--|----------|--3--|
G|----------2--2--|--2--|----------|--0--|
D|----------2--2--|--2--|----------|--0--|
A|----------0--0--|--0--|---4-4-4--|--2--|
E|--3-0-3---------|-----|---2-2-2--|--3--|
                     . x10  . . .     . x13


e|----------0-0-0-0-0--0-0-0--0--0-0--0-0-0-0-0--0-0-0--0--|
B|----------1-1-1-1-1--1-1-1--1--1-1--1-1-1-1-1--1-1-1--1--|
G|----------0-0-0-0-0--0-0-0--0--0-0--0-0-0-0-0--0-0-0--0--|
D|----------2-2-2-2-2--2-2-2--2--2-2--2-2-2-2-2--2-2-2--2--|
A|----------3-3-3-3-3--3-3-3--3--3-3--3-3-3-3-3--3-3-3--3--|
E|--3-0-3--------------------------------------------------|



chorus


e|--0-0--0-0-0-0-0-0-0-0-0-0-0-0-0-0-0-0-0-0-0-0-0-0-0-0-0-0--|
B|--0-0--0-0-0-0-0-0-0-0-0-0-0-0-0-1-1-1-1-1-1-1-1-1-1-1-1-1--|
G|--1-1--1-1-1-1-1-1-1-1-1-1-1-1-1-0-0-0-0-0-0-0-0-0-0-0-0-0--|
D|--2-2--2-2-2-2-2-2-2-2-2-2-2-2-2-2-2-2-2-2-2-2-2-2-2-2-2-2--|
A|--2-2--1-1-1-1-1-1-1-1-1-1-1-1-1-3-3-3-3-3-3-3-3-3-3-3-3-3--|
E|------------------------------------------------------------|


e|---0------2------2------3------|
B|---0------2------3------3------|
G|---1------2------2------0------|
D|---2------2------0------0------|
A|---2------0------0------2------|
E|------------------------3------|


e|--0-0--0-0-0-0-0-0-0-0-0-0-0-0-0-0-0-0-0-0-0-0-0-0-0-0-0-0--|
B|--0-0--0-0-0-0-0-0-0-0-0-0-0-0-0-1-1-1-1-1-1-1-1-1-1-1-1-1--|
G|--1-1--1-1-1-1-1-1-1-1-1-1-1-1-1-0-0-0-0-0-0-0-0-0-0-0-0-0--|
D|--2-2--2-2-2-2-2-2-2-2-2-2-2-2-2-2-2-2-2-2-2-2-2-2-2-2-2-2--|
A|--2-2--1-1-1-1-1-1-1-1-1-1-1-1-1-3-3-3-3-3-3-3-3-3-3-3-3-3--|
E|------------------------------------------------------------|


e|---0------2------2------3------0------|
B|---0------2------3------3------0------|
G|---1------2------2------0------1------|
D|---2------2------0------0------2------|
A|---2------0------0------2------2------|
E|------------------------3-------------|




breakdown


e|-----------------|
B|-----------------|
G|---7----9----5---|
D|---7----9----5---|  x4
A|---5----7----3---|
E|-----------------|


e|---------------------------0-0--0--0-0-0-------------0-0-------|
B|---------------------------0-0--0--0-0-0-------------1-1-------|
G|----------------------<5>--1-1--1--1-1-1-------------0-0--<5>--|
D|---5-5-5-5-7-7-7-5-5-------2-2--2--2-2-2-------------2-2-------|
A|---3-3-3-3-5-5-5-3-3-------2-2--2--2-2-2---5-5--5-5--3-3-------|
E|-------------------------------------------2-2--3-3------------|

e|---0-0--0--0-0-0--------------|
B|---0-0--0--0-0-0--------------|
G|---1-1--1--1-1-1--------------|
D|---2-2--2--2-2-2--------------|
A|---2-2--2--2-2-2---5-5--5-5---|
E|-------------------2-2--3-3---|

e|----------------------------------------------------------------------|
B|----------------------------------------------------------------------|
G|----------------------------------------------------------------------|
D|---5-5-5-5-5-5-5-5-5-5-5-5-5-5-5-5------------------------------------|  x2
A|---3-3-3-3-3-3-3-3-3-3-3-3-3-3-3-3-2-2-2-2-2-2-2-2-5-5-5-5-5-5-5-5----|
E|-----------------------------------0-0-0-0-0-0-0-0-2-2-2-2-2-2-2-2----|


e|---0-0-0-0-0--0-0-0--0--0-0--0-0-0-0-0--0-0-0--0------|
B|---1-1-1-1-1--1-1-1--1--1-1--1-1-1-1-1--1-1-1--1------|
G|---0-0-0-0-0--0-0-0--0--0-0--0-0-0-0-0--0-0-0--0------|
D|---2-2-2-2-2--2-2-2--2--2-2--2-2-2-2-2--2-2-2--2------|
A|---3-3-3-3-3--3-3-3--3--3-3--3-3-3-3-3--3-3-3--3------|  
E|------------------------------------------------------|


chorus

e|--0-0--0-0-0-0-0-0-0-0-0-0-0-0-0-0-0-0-0-0-0-0-0-0-0-0-0-0--|
B|--0-0--0-0-0-0-0-0-0-0-0-0-0-0-0-1-1-1-1-1-1-1-1-1-1-1-1-1--|
G|--1-1--1-1-1-1-1-1-1-1-1-1-1-1-1-0-0-0-0-0-0-0-0-0-0-0-0-0--|
D|--2-2--2-2-2-2-2-2-2-2-2-2-2-2-2-2-2-2-2-2-2-2-2-2-2-2-2-2--|
A|--2-2--1-1-1-1-1-1-1-1-1-1-1-1-1-3-3-3-3-3-3-3-3-3-3-3-3-3--|
E|------------------------------------------------------------|
                                                                 
                                            x2
e|---0------2------2------3------| second time end on |--0--|
B|---0------2------3------3------|                    |--0--|
G|---1------2------2------0------|                    |--1--|
D|---2------2------0------0------|                    |--2--|
A|---2------0------0------2------|                    |--2--|
E|------------------------3------|                    |-----|



comments
We did not receive enough feedback on this tab! Please rate:
print report bad tab
1 2 3 4 5
I want to post or [tab]
guest
You may want to rate the tab now too:
select rating
Please do not post tabs as comments. Select "correction" instead!