Oops, an error
Loading. Please wait.

Anklebiters Tab

version 1
version 1

Whole song

  • This version is more accurate, has an extra guitar... Show more

Interactive

18,777 views 27 this week
5 commentsread comments
1 2 3 4 5
x 22
add to favorites
launch autoscroll
font size
0
reset
how to read this tab
guitar tuner
Autoscroll
slow
fast
+/-
esc
set tempo
stop
Help us to improve Ultimate-Guitar.com Take our survey!
×
Difficulty
novice
Hey ;)
This is my first tab
If you want to see how I play the song:
http://www.youtube.com/watch?v=KcAkUn6WFnw

Have you questions post a comment :)

Intro
I think he play the 8t fret on the G String.... with some effects

Main Riff

e|------------------------------------------------------------------------|
B|---------7-9-7-9----------7-9-7-5----------7-9-7-5----------------------|
G|--------------------------------------------------------------9-8-6-8---|
D|-9-X-9-9----------9-X-9-9----------6-X-6-6-----------6-X-6-6------------|
A|-7-X-7-7----------7-X-7-7----------4-X-6-6----------4-X-4-4-------------|
E|------------------------------------------------------------------------|

Verse 1

e|-----------------------------------------------------------------------|
B|-----------------------------------------------------------------------|
G|-9-X-9-9---------9-X-9-9---------6-X-6-6------6-X-6-6------------------|
D|-x-X-x-x-9-9-9-9-x-X-x-x-9-9-9-9-x-X-x-x-6666-x-X-X-X-6666-------------|
A|-7-X-7-7-9-9-9-9-7-X-7-7-9-9-9-9-4-X-4-4-6666-4-X-4-4-6666-------------|
E|---------7-7-7-7---------7-7-7-7---------4444---------4444-------------|


Pre Chorus 1

e|------------------------------------------------------------------------|
B|--------------------9~--------------------------------------------------|
G|-6-6-6-6-/-9------------------------------------------------------------|
D|-x-x-x-x-/-------7~-----------------------------------------------------|
A|-4-4-4-4-/-7------------------------------------------------------------|
E|------------------------------------------------------------------------|

Chorus (find the right Ryhtmus

e|-------------------------|
B|-------------------------|
G|-9---6-4-9---------------|
D|-9-7-6-4-9-7-4-7-9-------|
A|-7-7-4-2-7-7-4-7-9-------|
E|---5-------5-2-5-7-------|



Verse 2 (Hear!)

e|-------|
B|-------|
G|-------|
D|-6666--|
A|-6666--|
E|-4444--| x2

Pre Chorus 2

e|----------------------------------------------------------------------|
B|--------------------9~------------------------------------------------|
G|-6-6-6-6-/-9---------------6-6-6-6-/-4----8-8-8-----------------------|
D|-x-x-x-x-/-------7~--------x-x-x-x-/-x----x-x-x-----------------------|
A|-4-4-4-4-/-7---------------4-4-4-4-/-2----6-6-6-----------------------|
E|----------------------------------------------------------------------|


Outro
Play Dead notes, find the Rythmus

then

e|-------|
B|-------|
G|-9-----|
D|-9-----|
A|-7-----|
E|-------|


Struktur

Intro
Riff
Verse 1
Pre Chorus 1
Chorus
Riff
Verse 2
Riff (Guitar 1), Verse 1 (Guitar 2)
Pre Chorus 2
Chorus
Outro
Suggest correction
comments
print report bad tab
5 comments total. Showing first comments.
0 reply
TheSiggi 53 Apr 16, 2013 01:50 PM

In the intro there is some feedback, only with distortion ;)
Good Job Man ;)

+1 reply
Ibanez1993 10 Apr 16, 2013 02:32 PM

In the riff me the line has shifted..

e|------------------------------------------------------------------------|
B|---------7-9-7-9----------7-9-7-5----------7-9-7-5----------------------|
G|--------------------------------------------------------------9-8-6-8---|
D|-9-X-9-9----------9-X-9-9----------6-X-6-6-----------6-X-6-6------------|
A|-7-X-7-7----------7-X-7-7----------4-X-6-6---------- 4-X-4-4------------|
E|------------------------------------------------------------------------|

+1 reply
daydreamin' 118 Apr 17, 2013 05:45 PM

Rhythm is how it's spelled. C:

guest
You may want to rate the tab now too:
select rating
Wanna post a correction for this tab? Suggest correction