Oops, an error
Loading. Please wait.

Anklebiters tab

version 2
version 2

Whole song

  • This version is more accurate, has an extra guitar... Show more

Interactive

473 views 1 this week
no commentswrite comment
1 2 3 4 5
3 more votes to show rating
add to favorites
×
Save as Personal and add changes to this tab that will be seen only by you. Learn more ›
×
You can save this tab as Personal to edit and correct it or add notes. All changes will be seen only by you. Learn more »
launch autoscroll
font size
0
reset
how to read this tab
guitar tuner
edit
Autoscroll
slow
fast
+/-
esc
set tempo
stop
Author
Difficulty
About this tab version
This version is more accurate, has an extra guitar part and explains the song better. Was this info helpful? Yes No
Paramore - Anklebiters
Guitar tab by Örn Segerstedt

Standard tuning ( E A D G B e )
E major
4/4
230 bpm

Legend:

x - dead note
\ - slide out

---


GUITAR 1



(guitar feedback/noise)

Intro

e|---------------------------------|
B|---------------------------------|
G|-9--9--9---------9--9--9---------|
D|-x--x--x-9-9-9-9-x--x--x-9-9-9-9-|
A|-7--7--7-9-9-9-9-7--7--7-9-9-9-9-|
E|---------7-7-7-7---------7-7-7-7-|


e|---------------------------------|
B|---------------------------------|
G|-6--6--6---------6--6--6---------|
D|-x--x--x-6-6-6-6-x--x--x-6-6-6-6-|
A|-4--4--4-6-6-6-6-4--4--4-6-6-6-6-|
E|---------4-4-4-4---------4-4-4-4-|



Verse 1 (same as Intro)



Pre-chorus 1

e|---------------------------------|
B|----------------------9--9-9\----|
G|-6---6-6---6-9\----------x-x-----|
D|-x---x-x---x-x-----7-----7-7\----|
A|-4---4-4---4-7\------------------|
E|---------------------------------|



Chorus 

These are the chords in right order. Listen for the rhythm.

e|---------------------------------|
B|---------------------------------|
G|---------6---4-------------------|
D|-2---7---6---4---2---7---4---7-9-|
A|-2---7---4---2---2---7---4---7-9-|
E|-0---5-----------0---5---2---5-7-|



Interlude (same as Intro)



Verse 2 (after this, Verse 2 is the same as Verse 1)

e|---------------------------------|
B|---------------------------------|
G|---------------------------------|
D|---------6-6-6-6---------6-6-6-6-|
A|---------6-6-6-6---------6-6-6-6-|
E|---------4-4-4-4---------4-4-4-4-|



Pre-chorus 2 (first part same as Pre-chorus 1)

e|---------------------------------|
B|-------------------12-12-12-12\--|
G|-9---9-9---9-8\----x--x--x--x----|
D|-x---x-x---x-x-----9--9--9--9\---|
A|-7---7-7---7-6\------------------|
E|---------------------------------|



Chorus (same as before)



Outro 

Mute the strings, strum and make noise the whole outro, then hit the chord on the last hit of the song.

e|-x-x-x-x-x-x-x-x-x-x-x-x-x-x-x---|
B|-x-x-x-x-x-x-x-x-x-x-x-x-x-x-x---|
G|-x-x-x-x-x-x-x-x-x-x-x-x-x-x-x---|
D|-x-x-x-x-x-x-x-x-x-x-x-x-x-x-x-2-|
A|-x-x-x-x-x-x-x-x-x-x-x-x-x-x-x-2-|
E|-x-x-x-x-x-x-x-x-x-x-x-x-x-x-x-0-|


---


GUITAR 2


(guitar feedback/noise)

Intro 

Play the parts in following order: A, B, A, C
  
  Part A

e|---------------------------------|
B|-9--9--9-7-9-7-9-9--9--9-7-9-7-9-|
G|-9--9--9-9-9-9-9-9--9--9-9-9-9-9-|
D|---------------------------------|
A|---------------------------------|
E|---------------------------------|

  Part B
 
e|---------------------------------|
B|---------7-9-7-------------------|
G|-6--9--6-------9-6--9--6-9-8-6---|
D|-------------------------------9-|
A|---------------------------------|
E|---------------------------------|

  Part C

e|-------------------------7-7-7-7-|
B|---------7-9-7-----------7-7-7-7-|
G|-6--9--6-------9-6--9--6-8-8-8-8-|
D|-------------------------9-9-9-9-|
A|---------------------------------|
E|---------------------------------|



Verse 1 (silent)

Pre-chorus 1 (silent)



Chorus

Play the parts in following order: A, B, A, C
  
  Part A

e|------7-----------7--------------|
B|----9----9------9----9-----------|
G|-9---------9-9---------9---------|
D|---------------------------------|
A|---------------------------------|
E|---------------------------------|


e|------0-----------0--------------|
B|----2----2------2----2-----------|
G|-2---------2-2---------2---------|
D|---------------------------------|
A|---------------------------------|


  Part B

e|------7-----------7--------------|
B|----5----5------5----5-----------|
G|-6---------6-6---------6---------|
D|---------------------------------|
A|---------------------------------|


e|------7-----------7--------------|
B|----5----7------7----7-----------|
G|-4---------4-4---------4---------|
D|---------------------------------|
A|---------------------------------|


  Part C

e|------0--------0-----------------|
B|----9---9----9---9---------------|
G|-11-------11---------------------|
D|---------------------------------|
A|---------------------------------|


e|------0------0-0-0-0-------------|
B|----2----2---4-4-4-4-------------|
G|-2---------2---------------------|
D|---------------------------------|
A|---------------------------------|



Interlude (same as Intro)



Verse 2 

e|---------------------------------|
B|---------12121212----------------|
G|---------x-x-x-x---------8-8-8-8-|
D|---------9-9-9-9---------x-x-x-x-|
A|-------------------------6-6-6-6-|
E|---------------------------------|


e|---------------------------------|
B|-9--9--9-7-9-7-9-9--9--9-7-9-7-9-|
G|-9--9--9-9-9-9-9-9--9--9-9-9-9-9-|
D|---------------------------------|
A|---------------------------------|
E|---------------------------------|


e|---------------------------------|
B|-5--5--5-7-9-7-9-5--5--5-12121212|
G|-x--x--x-9-9-9-9-x--x--x-x-x-x-x-|
D|-2--2--2---------2--2--2-9-9-9-9-|
A|---------------------------------|
E|---------------------------------|



Pre-chorus 2 

e|---------------------------------|
B|----------------------9--9-9\----|
G|-6---6-6---6-9\----------x-x-----|
D|-x---x-x---x-x-----7-----7-7\----|
A|-4---4-4---4-7\------------------|
E|---------------------------------|

e|---------------------------------|
B|-14--1414--1412\---16-16-16\-----|
G|-x---x-x---x-x-----x--x--x-------|
D|-11--1111--119\----13-13-13\-----|
A|---------------------------------|
E|---------------------------------|



Chorus (same as before)

Outro (silent)

            
            
Suggest correction
Creating personal tab
Creating personal tab
You can edit any tab online and save it as your Personal.

You can edit, replace or remove any tab part or add personal notes – all changes will be seen only by you.

Personal tabs can be accessed anytime from any device, even offline.
Learn more »
Give kudos to tab author, rate the tab!
1 2 3 4 5
comments
print report bad tab
guest
You may want to rate the tab now too:
select rating
Wanna post a correction for this tab? Suggest correction