Oops, an error
Loading. Please wait.

Be Alone Bass Tab

1,377 views 3 this week
no commentswrite comment
1 2 3 4 5
excellent!
x 5
add to favorites
launch autoscroll
font size
0
reset
guitar tuner
Tab Pro tools
  • play this tab
  • loop segment
  • change instrument
  • show fretboard
  • metronome
Autoscroll
slow
fast
+/-
esc
set tempo
stop
Contributor
Difficulty
novice
Paramore - Be alone

tabbed by stummerman

stummer@live.co.uk


verse

G|-------------------------------------|-------------------------------------|
D|-77777777-99999999-77777777-999997---|----------------57-------------------|
A|----------------------------------97-|-55555555-777777---55555555-77777777-|
E|-------------------------------------|-------------------------------------|

G|-------------------------------------|-------------------------------------|
D|-77777777-999997----------7-999997---|----------------57-77777777-99999999-|
A|----------------97-9999999--------97-|-55555555-777777---------------------|
E|-------------------------------------|-------------------------------------|

0.36

G|-----------|------------------|
D|--77--7-9--|-11-11---11-12----|
A|-----------|---------------9--|
E|-----------|------------------|

0.42

crs

G|--------------------|---------------------|----------------------|-------|
D|--------------------|---------------------|----------------------|-------|
A|--5---5---10-10-10--|-14---14---12-12-12--|--5---5---10-10-10-10-|--12-7-|
E|--------------------|---------------------|----------------------|-------|

then repeat as necessary


tab was a bit rushed so feel free to email with any corrections.

enjoy
comments
print report bad tab
I want to post or [tab]
guest
You may want to rate the tab now too:
select rating
Please do not post tabs as comments. Select "correction" instead!