Oops, an error
Loading. Please wait.

Born For This Bass Tab

version 2
version 2

Whole song

Interactive

9,495 views 6 this week
2 commentsread comments
1 2 3 4 5
accurate
x 3
add to favorites
launch autoscroll
font size
0
reset
guitar tuner
Autoscroll
slow
fast
+/-
esc
set tempo
stop
Help us to improve Ultimate-Guitar.com Take our survey!
×
Contributor
paramore_fans 85,412
Paramore
Born For This
Riot
2007 Fueled by Rammen Records
Submitted by: paramore_fans@yahoo.com

Tuning: Drop C#


Intro:
F#|------------------------------------|---|
C#|------------------------------------|---|
G#|-2-2-2-2--0-0-0-0-------------------|-2-|
C#|-------------------0-0-0-0--2-2-2-2-|---|
                 x2


Verses:
F#|------------------------------------------|
C#|------------------------2--2p0--0-4-2-0---|
G#|-0h2-------------0h2--2-----------------4-| (x2)
C#|-------0h5--0h4---------------------------|


Refrain:
F#|---------------------------------------------------------------|
C#|---------------------------------------------------------------|
G#|----------2-2-2-2-4h5------------------------0--0--0--0--2---2-|
C#|-2-2-2-2--------------5-5-5-5--2-0h2-0h2-0h2-------------------|


Chorus:
F#|--------------------------------------------------|
C#|--------------------------------------------------|
G#|----------------------------------2-2-2-2-0-0-0-0-|
C#|-0h5---5p0-0-0-0--0h4-4-4-4-0h5-------------------|
then
F#|---------------------------------------------------|
C#|---------------------------------------------------|
G#|---------------------------------2-2-2-2-0-0-0-0---|
C#|-5-5-5-5-0-0-0-0-4-4-4-4-5-5-5-5-----------------5-|


Bridge:
F#|------------------|------------------|
C#|------------------|------------------|
G#|------0----2------|------0-----------|
C#|-5--------------2-|-5---------5----4-|
          x2
comments
We did not receive enough feedback on this tab! Please rate:
print report bad tab
1 2 3 4 5
2 comments total.
0 reply
AlexD97 572 wrote on July 13 2010, 07:08 am

Good tab, but these sound a bit better:

Intro


F#|-----------------------------------|
C#|-----------------------------------|
G#|------------------55555-7-77-7h9p7-|
C#|99999999-77777777------------------| x2


Verse 1:

F#|------------------------------------------------------------------------|
C#|------------------------2--2p0--00-44-22-00---------------2-2p0---------|
G#|-0h2-------------0h2--2--------------------4---------0h2-2------9999-797| (x2)
C#|-------0h5--5p4------------------------------0h5-5p4--------------------|


Verse 2:

F#|-------------------------------------------------------------|
C#|-------2--2p0--00-44-22-00---------------2-2p0---------------|
G#|0h2--2--------------------4---------0h2-2------99999999-7h9p7|
C#|----------------------------0h5-5p4--------------------------|2x


Chorus:

F#|-------------------------------------------------|
C#|-------------------------------------------------|
G#|--------------------------------22222222-00000000|
C#|-55--55--00000000h4-4444444-55-------------------|

Another part of chorus:
Chorus:
F#|---------------------------------------------------------------------------|
C#|---------------------------------------------------------------------------|
G#|--------------------------------------------------------22222222-00000000--|
C#|-5555555555555555--00000000h4-4444444-5555555555555555-------------------5~|

0 reply
AlexD97 572 wrote on July 13 2010, 07:09 am

Refrain:


F#|------------------------------------------------------|
C#|------------------------------------------------------|
G#|------2~-4h5----------------------------00-00-0-0-2--2|
C#|-2~----------5~---22-22-22-22-2-2-55-55---------------|

I want to post or [tab]
guest
You may want to rate the tab now too:
select rating
Please do not post tabs as comments. Select "correction" instead!