Oops, an error
Loading. Please wait.

Born For This Bass Tab

version 3
version 3

Whole song

Interactive

2,058 views 9 this week
no commentswrite comment
1 2 3 4 5
x 3
add to favorites
launch autoscroll
font size
0
reset
guitar tuner
Autoscroll
slow
fast
+/-
esc
set tempo
stop
Help us to improve Ultimate-Guitar.com Take our survey!
×
Author
Difficulty
Tuning
novice
C# G# C# F# A# D#
I fixed this a while ago but they never accepted my corrections. Here's hoping it works now.


F#|-----------------------------------------------------------------|
C#|-----------------------------------------------------------------|
G#|-2-2-2---2-2-2-0---0-0---0-0-0---5-5-5---5-5-5-7---7-7---7h9p7---|
C#|-----------------------------------------------------------------|

F#|-----------------------------------------------------------------|
C#|-----------------------------------------------------------------|
G#|-2-2-2---2-2-2-0---0-0---0-0-0---5-5-5---5-5-5-7---7-7---7-9-7-5-|
C#|-----------------------------------------------------------------|

0:12
F#|------------------------------------------------------------|
C#|--------------------------------------------4-4-2-2---------|
G#|-0-2--------2-----------0-2---2-----2-5---5---------5-5-4-4-|
C#|--------------5---5-4-----------2---------------------------|

0:24
F#|----------------------------------------------------------|
C#|------------------------------------------4-4-4-4-4-2-4-2-|
G#|-2--------2-----------0-2---2-----2-5---------------------|
C#|------------5---5-4-----------2---------------------------|

0:33
F#|------------------------------------------------------------------|
C#|------------------------------------------------------------------|
G#|------------2-----------------------------------------------------|
C#|-2---------------------5----------2-2---2-2---2-2---2-2---2---2---|

F#|------------------------------------------------------------------|
C#|------------------------------------------------------------------|
G#|------------------------------------------------------------------|
C#|-7-7---7-7---7-7---7-7---7---7---9-\---------------9-\------------|

0:52
F#|------------------------------------------------------------------|
C#|------------------------------------------------------------------|
G#|------------------------------------------------------------------|
C#|-5------------5-0-0-0-0-0-0-0-0-0h4-4-4-4-4-4-4-4-5---------------|

F#|-------------------------------------------------------------------|
C#|-------------------------------------------------------------------|
G#|-0-2-2-2-2-2-2-2-2-0-0-0-0-0-0-0-0---------------------------------|
C#|-----------------------------------5-5-5-5-5-5-5-5-5-5-5-5-5-5-5-7-|

F#|-----------------------------------------------------------------|
C#|-----------------------------------------------------------------|
G#|-----------------------------------------------------------------|
C#|-0-0-0-0-0-0-0-0-4-4-4-4-4-4-4-4-5-5-5-5-5-5-5-5-5-5-5-5-5-5-5-5-|

F#|------------------------------------------|
C#|------------------------------------------|
G#|-2-2-2-2-2-2-2-2-0-0-0-0-0-0-0-0----------|
C#|---------------------------------5--------|

Rest

1:20
F#|---------------------------------------|
C#|-----------------------4-4-2-2---------|
G#|-0-0-2---2-----2-5---5---------5-5-4-4-|
C#|-----------2---------------------------|

F#|----------------------------------------------------------|
C#|------------------------------------------4-4-4-4-4-2-4-2-|
G#|-2--------2-----------0-2---2-----2-5---------------------|
C#|------------5---5-4-----------2---------------------------|

1:36
F#|--------------------------------------------------------------------|
C#|--------------------------------------------------------------------|
G#|--------------------------------------------------------------------|
C#|-2-------2-/-9-----------5----------2-2---2-2---2-2---2-2---2---2---|

F#|------------------------------------------------------------------|
C#|------------------------------------------------------------------|
G#|------------------------------------------------------------------|
C#|-7-7---7-7---7-7---7-7---7---7---9-\---------------9-\------------|

1:53
F#|-------------------------------------------------------------------------------|
C#|-------------------------------------------------------------------------------|
G#|-2-2-2-2-2-2-2-----/-10-\------------------------------------------------------|
C#|---------------5-\--------------5-0-0-0-0-0-0-0-0-0-4-4-4-4-4-4-4-4-5----------|

F#|---|------------------------------------------------------------------|
C#|---|o-----------------------------------------------------------------|
G#|-0-|o-2-2-2-2-2-2-2-2-0-0-0-0-0-0-0-0---------------------------------|
C#|---|----------------------------------5-5-5-5-5-5-5-5-5-5-5-5-5-5-5-7-|

F#|------------------------------------------------------------------|
C#|-----------------------------------------------------------------o|
G#|-----------------------------------------------------------------o|
C#|-0-0-0-0-0-0-0-0-4-4-4-4-4-4-4-4-5-5-5-5-5-5-5-5-5-5-5-5-5-5-5-5--|

F#|-----------------------------------|
C#|-----------------------------------|
G#|-2-2-2-2-2-2-2-2-0-0-0-0-0-0-0-----|
C#|-----------------------------------|

Rest

2:28
F#|-----------------------------------------------------------------|
C#|-----------------------------------------------------------------|
G#|-2-2-2---2-2-2-0---0-0---0-0-0---5-5-5---5-5-5-7---7-7---7h9p7---|
C#|-----------------------------------------------------------------|

F#|-----------------------------------------------------------------|
C#|-----------------------------------------------------------------|
G#|-2-2-2---2-2-2-0---0-0---0-0-0---5-5-5---5-5-5-7---7-7---7-9-7-5-|
C#|-----------------------------------------------------------------|

2:39
F#|------------------------------------------------------------------------|
C#|------------------------------------------------------------------------|
G#|--------0------2---------------------0------2--------------------0------|
C#|-5--------------------2------5---------------------2------5-------------|

F#|-----------------------------------------------------------------|
C#|-----------------------------------------------------------------|
G#|-----------------------------------------------------------------|
C#|-5-5-5-5-5-5-5-5-5-5-5-5-5-5-5-5-4-4-4-4-4-4-4-4-4-4-4-4-4-4-4-4-|

Rest

3:12
F#|----------------------------------------------|
C#|----------------------------------------------|
G#|-2--------------------------------------------|
C#|---0-0-0-0-0-0-0-0-4-4-4-4-4-4-4-4-5----------|

F#|---|------------------------------------------------------------------|
C#|---|o-----------------------------------------------------------------|
G#|-0-|o-2-2-2-2-2-2-2-2-0-0-0-0-0-0-0-0---------------------------------|
C#|---|----------------------------------5-5-5-5-5-5-5-5-5-5-5-5-5-5-5-7-|

F#|------------------------------------------------------------------|
C#|-----------------------------------------------------------------o|
G#|-----------------------------------------------------------------o|
C#|-0-0-0-0-0-0-0-0-4-4-4-4-4-4-4-4-5-5-5-5-5-5-5-5-5-5-5-5-5-5-5-5--|

3:38
F#|-----------------------------------------------------------------|
C#|-----------------------------------------------------------------|
G#|-2-2-2-2-2-2-2-2-0-0-0-0-0-0-0-0---------------------------------|
C#|---------------------------------5-5-5-5-5-5-5-5-5-5-5-5-5---5---|

F#|------------------------------|
C#|------------------------------|
G#|-2-----------------0---2------|
C#|--------2------5--------------|
Tabbed by Dave Vucko
Suggest correction
Give kudos to tab author, rate the tab!
1 2 3 4 5
comments
print report bad tab
guest
You may want to rate the tab now too:
select rating
Wanna post a correction for this tab? Suggest correction