Oops, an error
Loading. Please wait.

Born For This Bass Tab

version 4
version 4

Whole song

Interactive

1,487 views 1 this week
no commentswrite comment
1 2 3 4 5
please rate
add to favorites
launch autoscroll
font size
0
reset
guitar tuner
Tab Pro tools
  • play this tab
  • loop segment
  • change instrument
  • show fretboard
  • metronome
×
Best way to learn
"Born For This"
Autoscroll
slow
fast
+/-
esc
set tempo
stop
Contributor
Difficulty
Tuning
novice
C# G# C# F# A# D#
PARAMORE
BORN FOR THIS
Tabbed by: Claire
Drop C# = Db Ab Db Gb (Low to high)

Hi, I decided to make this because I didn't find a tab on the site that was totally correct.. 
So here I am, I hope you appreciate this because I love Paramore 
and I'd like to share this with you! ROCK ON! 

Intro
|-----------------------------------|
|-----------------------------------|
|-----------------------------------|
|99999999-77777777-000000-22002200--| x2

Verse:
|-----------------------------------------------------------------------------|
|-----------------------------------------------------------------------------|
|--2--2----------2--2---2-5-5-99-77-55-44-2--2---------2--2---2-5-9999-7-9-7--|
|4------5--54--4------2------------------------5-54--4------2-----------------|

Pre-Chorus:
|---------------------------------------------|
|---------------------------------------------|
|---------------------------------------------|
|2~---9~--5~--22-22-22-22-2-2-77-77-7-7-9---9-|

Chorus:
|---------------------------------------------|
|---------------------------------------------|
|---------------------------------------------|
|5---5-00000000-44444444-5-5-9999999-77777777-|

|--------------------------------------------------------------------------|
|--------------------------------------------------------------------------|
|--------------------------------------------------------------------------|
|55555555555555-5h7-00000000-44444444-5555555555555555-99999999-7777777-5~-|

Play Verse x1 (start from the sixth note = 4 and then 2)

Pre-Chorus:
|---------------------------------------------|
|---------------------------------------------|
|---------------------------------------------|
|2~---9~--5~--22-22-22-22-2-2-77-77-7-7-9---9-|

Play Chorus x2
and Intro x1

Bridge:
|-------------------|    |------------------------------------------|
|-------------------|  > continue! ---------------------------------|
|-------------------|    |------------------------------------------|
|5~---7~--9~---2~---| x2 |5---7---555555555555555-4444444444444444-5|

Chorus:
|-----------------------------------------|
|-----------------------------------------|
|-----------------------------------------|
|5-00000000-44444444-5-5-9999999-77777777-|

|-----------------------------------------------------------------------|
|-----------------------------------------------------------------------|
|-----------------------------------------------------------------------|
|55555555555555-5h7-00000000-44444444-5555555555555555-99999999-7777777-| 

|-------------------------------------------------------------------------------|
|-------------------------------------------------------------------------------|
|-------------------------------------------------------------------------------|
|55555555555555-5h7-00000000-44444444-5555555555555555-99999999-7777777-55555555| 

Outro:
|-----------------|
|-----------------|
|-----------------|
|9---2---5---7---9|
comments
We did not receive enough feedback on this tab! Please rate:
print report bad tab
1 2 3 4 5
I want to post or [tab]
guest
You may want to rate the tab now too:
select rating
Please do not post tabs as comments. Select "correction" instead!