Oops, an error
Loading. Please wait.

Born For This Tab

version 6
version 6

Interactive

3,412 views 3 this week
no commentswrite comment
1 2 3 4 5
1 last vote to show rating
add to favorites
launch autoscroll
font size
0
reset
how to read this tab
guitar tuner
Autoscroll
slow
fast
+/-
esc
set tempo
stop
Help us to improve Ultimate-Guitar.com Take our survey!
×
Author
Tuning
D A D G B E
Hey everyone! I looked at the tab for this in Drop C#, then at the chords, and just put
them together in Drop D. It's at least 95% correct, if not completely. But if you find mistakes, please
comment!

Enjoy. =)

Intro:

E|-13(b)--11--------------------------11------11------|  (2x)
B|------------14--11--11------13--13------13------13--|
G|------------------------13--------------------------|
D|----------------------------------------------------|
A|----------------------------------------------------|
D|----------------------------------------------------|

Verse: (Every chord strummed 4 times unless written otherwise)

E|------------------|-----------------------|
B|------------------|-----------------------|
G|------------------|-----------------------|
D|--8--------4---3--|-8---1---11------------|
A|--8-(x16)--4---3--|-8---1---11------------|
D|--8--------4---3--|-8---1---11------------|
"Oh no, I just keep on falling..."

And right here, if you wanna get fancy, I know it's the bass part, but still it's fun. =)

E|-------------------------|
B|-------------------------|
G|--10-10--8-8--6-6--5-5---|(3)
D|--10-10--8-8--6-6--5-5---|(3) << The chord in Parenthesis is the same as
A|--8--8---6-6--4-4--3-3---|(1)    the start of the verse, if you just want
D|-------------------------|       to stay there after that part.
"Oh, my way, eh."

E|------------------|-----------------------|
B|------------------|-----------------------|
G|------------------|-----------------------|
D|--8--------4---3--|-8---1---11---3--------|
A|--8-(x8)---4---3--|-8---1---11---3--------|
D|--8--------4---3--|-8---1---11---3--------|

Pre-Chorus:

E|-------------------------------------------------------------------------|
B|-------------------------------------------------------------------------|
G|-------------------------------------------------------------------------|
D|---1~--8~--4~---11-11-11-11-1-1-66-66-66-66-6-6----8\--8\----------------|
A|---1~--8~--4~---11-11-11-11-1-1-66-66-66-66-6-6----8\--8\----------------|
D|---1~--8~--4~---11-11-11-11-1-1-66-66-66-66-6-6----8\--8\----------------|
"It takes a..."

Chorus:

e|---------------------------------------------|
B|---------------------------------------------|
G|---------------------------------------------|
D|--4xxx---11-----3-----4xxx---8-----6---------| x2 (Don't mute 4 second time)
A|--4xxx---11(x8)-3(x8)-4xxx---8(x8)-6(x8)-----|
D|--4xxx---11-----3-----4xxx---8-----6---------|
"Everybody sing..."

(Instead of playing the second chord on the 11th fret, here's a variation)
E|-----
B|-----
G|--6--
D|--6--
A|--4--
D|-----

Repeat Verse, Pre-Chorus, Chorus (Just repeat x3 instead), then Intro.

Bridge:

e|-------------------------------------------------------------------------|
B|-------------------------------------------------------------------------|
G|-------------------------------------------------------------------------|
D|--4~--6~--8--xx-x--1--xx-x---4~--6~--8--xx-x--1--xx-x--4--xx-x--6--xx-x--|
A|--4~--6~--8--xx-x--1--xx-x---4~--6~--8--xx-x--1--xx-x--4--xx-x--6--xx-x--|
D|--4~--6~--8--xx-x--1--xx-x---4~--6~--8--xx-x--1--xx-x--4--xx-x--6--xx-x--|
"Alright So You Think Your Ready..."

e|---------------------------------------------------|
B|------------------------------------14-------------|
G|------------------------------------13(x16)--------|
D|--4~-------------6~-----------------11-------------|
A|--4~-------------6~--------------------------------|
D|--4~-------------6~--------------------------------|
"We were born for, we were born for- Everybody Sing!"

(Repeat Chorus, starting on the 2nd chord, then repeat)

Outro:

e|-----------------------------------------------|
B|-----------------------------------------------|
G|-----------------------------------------------|
D|--8-----xx-x--1-----xx-x--4--xx-x--6--xx-x--8--|
A|--8-----xx-x--1-----xx-x--4--xx-x--6--xx-x--8--|
D|--8-----xx-x--1-----xx-x--4--xx-x--6--xx-x--8--|
"We were born for this."

Have fun! Again, any questions, please comment!
Suggest correction
Give kudos to tab author, rate the tab!
1 2 3 4 5
comments
print report bad tab
guest
You may want to rate the tab now too:
select rating
Wanna post a correction for this tab? Suggest correction