Oops, an error
Loading. Please wait.

Brick By Boring Brick Chords

version 1
version 1

Interactive

296,452 views 21 this week
6 commentsread comments
1 2 3 4 5
x 7
add to favorites
launch autoscroll
font size
0
reset
transpose
0
reset
display chords
guitar tuner
Autoscroll
slow
fast
+/-
esc
set tempo
stop
Help us to improve Ultimate-Guitar.com Take our survey!
×
Author
Brick By Boring Brick (Acoustic)
By Paramore
Tuning: Standard
Key: Fm


[Verse]

e|--------------------------------------------------------|
B|--------------------------------------------------------|
G|-------10-8-5-5h6p5h6p5---------------------------------|
D|-----6--------------------------------------------------|
A|-6/8----------------------------------------------------|
E|--------------------------------------------------------|
[Pre-Chorus]
e|--------------------------------------------------------|
B|--------------------------------------------------------|
G|--------------------------------------------------------|
D|-8----10-6-5---6--8-------------------------------------|
A|--------------------------------------------------------|
E|--------------------------------------------------------|
[Chorus]
e|--------------------------------------------------------|
B|-----9-8--------9-8-------------------------------------|
G|-1/5-----8—1/5------8------8----8—---5/3--5/3-----------|
D|-----------------------5/6---5/6------------------------|
A|--------------------------------------------------------|
E|--------------------------------------------------------|
[Bridge]
e|--------------------------------------------------------|
B|--------------------------------------------------------|
G|----------13-15-13---12-13------------------------------|
D|-11-13-13---------13------------------------------------|
A|--------------------------------------------------------|
E|--------------------------------------------------------|
[Outro]
e|--------------------------------------------------------|
B|--------------------------------------------------------|
G|--------------------------------------------------------|
D|--10^---------------------------------------------------|
A|--------------------------------------------------------|
E|--------------------------------------------------------|

[Intro:] 
Fm, Eb, Ab x2

[Verse]
N.C
She lives in a fairy tale

Somewhere too far for us to find

Forgotten the taste and smell

Of the world that she's left behind


Fm                                      Ab
It's all about the exposure the lens I told her


Fm                                      
The angles were all wrong now

Ab
She's ripping wings off of butterflies


[Pre-Chorus]
Eb                                      Ab     Eb     Cm
Keep your feet on the ground

Eb                                      Ab     Eb     Cm
When your head’s in the clouds


[Chorus]
Ab
Well go get your shovel

Cm
And we'll dig a deep hole

Ab
To bury the castle, 
Eb
bury the castle

Ab
Well go get your shovel

Cm
And we'll dig a deep hole

Ab
To bury the castle, 
Eb
bury the castle

N.C
Ba da ba ba da ba
ba-ah

Ab, Fm,Eb,Ab

[Verse]
N.C
So one day he found her crying

Coiled up on the dirty ground

Her prince finally came to save her

And the rest you can figure out

Fm                      
But it was a trick

Ab
And the clock struck 12

Fm                                              
Well make sure to build your home brick by boring brick
Ab

or the wolves gonna blow it down


[Pre-Chorus]
Ab                                      Eb     Ab     Cm
Keep your feet on the ground

Ab                                      Eb     Ab     Cm
When your head’s in the clouds

[Chorus]
Ab
Well go get your shovel

Cm
And we'll dig a deep hole

Ab
To bury the castle, 
Eb
bury the castle

Ab
Well go get your shovel

Cm
And we'll dig a deep hole

Ab
To bury the castle, 
Eb
bury the castle


Bridge (Not so sure about this part)
Bb, Ab, Eb, Cm, 
Bb, Ab, Eb, Fm
Well you built up a world of magic

Because your real life is tragic

Yeah you built up a world of magic


[Pre-Chorus 2]
Ab
If it's not real

Eb
You can't see it with your eyes

Ab
You can't feel it with your heart

Cm
And I won't believe it
Ab

Cause if it's true


Eb
You can see it with your eyes

Ab
Even in the dark

Cm
And that's where I want to be, yeah


[Chorus]
Ab
Well go get your shovel

Cm
And we'll dig a deep hole

Ab
To bury the castle, 
Eb
bury the castle

Ab
Well go get your shovel

Cm
And we'll dig a deep hole

Ab
To bury the castle, 
Eb
bury the castle


[Outro]
Fm, Ab
Suggest correction
comments
print report bad tab
6 comments total. Showing first comments.
0 reply
EnProX 10 Aug 31, 2009 12:40 PM

Not exactly what they play...the chords are fully wrong (look on the video and you'll see that they don't play what you recommend here) and the single notes aren't exactly 100% correct, but nearly there.

0 reply
vyzhyn 20 Aug 31, 2009 01:34 PM

the chords actually are correct, but i do noe they are not on the right octaves. the bridge is totally wrong, though. Do offer corrections if you find them out, yea?

0 reply
k4rma 16 Aug 31, 2009 03:51 PM

Taylor/the lead actually plays:

e|----------------------------------------------|
B|----------------------------------------------|
G|---------10-8---------------------------------|
D|--------------10---10~------------------------|
A|-8h10h11--------------------------------------|
E|----------------------------------------------|

verse:
e|--------------------------------------------------------|
B|-----------------------------------------------|
G|-------10-8------------------------------------|
D|------------10---------------------------------|
A|-8h10------------------------------------------|
E|-----------------------------------------------|

first part of choruschorus:
e|--------------------------------------|
B|---------9-8--------------------------|
G|-------------8------------------------|
D|---8h10-------------------------------|
A|--------------------------------------|
E|--------------------------------------|

guest
You may want to rate the tab now too:
select rating
Wanna post a correction for this tab? Suggest correction