Oops, an error
Loading. Please wait.
We have an official Brick By Boring Brick tab made by UG professional guitarists. Check out the tab »
×
217,099 views 27 this week
5 commentsread comments
1 2 3 4 5
x 11
add to favorites
launch autoscroll
font size
0
reset
how to read this tab
guitar tuner
backing track
0:00
0:00
Autoscroll
slow
fast
+/-
esc
set tempo
stop
Author
Difficulty
novice
Paramore
Brick By Boring Brick
brand new eyes

This was actually meant to be played along with the MTV unplugged performance.  The
version was just released today (9/8/09).  To play that version, play everything a half-step up
or tune your guitar down.

Tuning: Standard

 [Intro]
e|---------------------------------------------------------------------------|x2
B|---------------------------------------------------------------------------|
G|---------------------------------------------------------------------------|
D|---------------------------------------------------------------------------|
A|---------------------------------------------------------------------------|
E|--13-13-13-13-13-13-13-13-8-8-8-8-9-9-9-9-4-4-4-4-4-4-4-4-4-4-4-4-4-4-4-4--|

e|----------------------------------|x2
B|----------------------------------|
G|-----------10--8--5---5b6--5b6--5-|
D|-------6--------------------------|
A|--6h8-----------------------------|
E|----------------------------------|

 [Verse 1]
e|---------------------------------------------------------------------------|x2
B|---------------------------------------------------------------------------|
G|---------------------------------------------------------------------------|
D|---------------------------------------------------------------------------|
A|---------------------------------------------------------------------------|
E|--13-13-13-13-13-13-13-13-8-8-8-8-9-9-9-9-4-4-4-4-4-4-4-4-4-4-4-4-4-4-4-4--|

e|--------------------|x2
B|--------------------|
G|-----------10--8--5-|
D|--------------------|
A|--6h8---------------|
E|--------------------|

[Pre-Chorus 1]
e|-------------------------------------------------|
B|-------------------------------------------------|
G|--8--8--8-8--8--8--8-8--10--10--10-10--6--6--6-6-|
D|--8--8--8-8--8--8--8-8--10--10--10-10--6--6--6-6-|
A|--6--6--6-6--6--6--6-6--8---8---8--8---4--4--4-4-|
E|-------------------------------------------------|

e|--------------------------------------|
B|--------------------------------------|
G|--8--8--8-8--8--8--8-8--10--10--10-10-|
D|--8--8--8-8--8--8--8-8--10--10--10-10-|
A|--6--6--6-6--6--6--6-6--8---8---8--8--|
E|--------------------------------------|

e|--------------------------|
B|--------------------------|
G|--------------------------|
D|--13-13-13-13-13-13-13-13-|
A|--13-13-13-13-13-13-13-13-|
E|--11-11-11-11-11-11-11-11-|

[Chorus 1]
e|----------------------------------------------------------------------| x2
B|--------9--8-------------9--8-----------------------------------------|
G|--------------8-------------------------------------------------------|
D|--6h8--------------6h8-------------6--5--6---6--5--6---10--8---10--8--|
A|----------------------------------------------------------------------|
E|----------------------------------------------------------------------|

[Pre-Verse]
e|--------------------------------------------------------------------------|
B|--------------------------------------------------------------------------|
G|--------------------------------------------------------------------------|
D|--------------------------------------------------------------------------|
A|--------------------------------------------------------------------------|
E|--13-13-13-13-13-13-13-13-8-8-8-8-9-9-9-9-4-4-4-4-4-4-4-4-4-4-4-4-4-4-4-4-|

e|---------------------------------|
B|---------------------------------|
G|-----------10--8--5--5b6--5b6--5-|
D|-------6-------------------------|
A|--6h8----------------------------|
E|---------------------------------|

[Verse 2]
e|---------------------------------------------------------------------------|x2
B|---------------------------------------------------------------------------|
G|---------------------------------------------------------------------------|
D|---------------------------------------------------------------------------|
A|---------------------------------------------------------------------------|
E|--13-13-13-13-13-13-13-13-8-8-8-8-9-9-9-9-4-4-4-4-4-4-4-4-4-4-4-4-4-4-4-4--|

e|--------------------|x2
B|--------------------|
G|-----------10--8--5-|
D|--------------------|
A|--6h8---------------|
E|--------------------|

[Pre-Chorus 2]
e|-------------------------------------------------|
B|-------------------------------------------------|
G|--8--8--8-8--8--8--8-8--10--10--10-10--6--6--6-6-|
D|--8--8--8-8--8--8--8-8--10--10--10-10--6--6--6-6-|
A|--6--6--6-6--6--6--6-6--8---8---8--8---4--4--4-4-|
E|-------------------------------------------------|

e|--------------------------------------|
B|--------------------------------------|
G|--8--8--8-8--8--8--8-8--10--10--10-10-|
D|--8--8--8-8--8--8--8-8--10--10--10-10-|
A|--6--6--6-6--6--6--6-6--8---8---8--8--|
E|--------------------------------------|

e|--------------------------|
B|--------------------------|
G|--------------------------|
D|--13-13-13-13-13-13-13-13-|
A|--13-13-13-13-13-13-13-13-|
E|--11-11-11-11-11-11-11-11-|

[Chorus 2]
e|----------------------------------------------------------------------| x2
B|--------9--8-------------9--8-----------------------------------------|
G|--------------8-------------------------------------------------------|
D|--6h8--------------6h8-------------6--5--6---6--5--6---10--8---10--8--|
A|----------------------------------------------------------------------|
E|----------------------------------------------------------------------|

[Bridge]
e|------------------------------------------------------------|
B|------------------------------------------------------------|
G|--10---8---5---6---8---10---12---10---8---5---6---8---5---3-|
D|--x----x---x---x---x---x----x----x----x---x---x---x---x---x-|
A|--8----6---3---4---6---8----10---8----6---3---4---6---3---1-|
E|------------------------------------------------------------|

For the above part, you can listen to the song for the strumming pattern or you can
my video on my youtube page (At the bottom).

e|-------------------|
B|-------------------|
G|-------5-----------|
D|--6----5----3----6-|
A|--6----3----3----6-|
E|--4---------1----4-|

Short Guitar Solo Section
e|---------------------------------|
B|--------9--11--9-----8--9------8-|
G|--8--8------------8--------------|
D|---------------------------------|
A|---------------------------------|
E|---------------------------------|

[Chorus 3]
e|----------------------------------------------------------------------| x2
B|--------9--8-------------9--8-----------------------------------------|
G|--------------8-------------------------------------------------------|
D|--6h8--------------6h8-------------6--5--6---6--5--6---10--8---10--8--|
A|----------------------------------------------------------------------|
E|----------------------------------------------------------------------|

*Pause in song*

[Outro]
e|---------------------------------------------------------------------------|x2
B|---------------------------------------------------------------------------|
G|---------------------------------------------------------------------------|
D|---------------------------------------------------------------------------|
A|---------------------------------------------------------------------------|
E|--13-13-13-13-13-13-13-13-8-8-8-8-9-9-9-9-4-4-4-4-4-4-4-4-4-4-4-4-4-4-4-4--|

e|-----------------------------------------------------------------------------------|x2
B|-----------------------------------------------------------------------------------|
G|-----------------------------------------------------------------------------------|
D|--15-15-15-15-15-15-15-15-10-10-10-10-11-11-11-11-6-6-6-6-6-6-6-6-6-6-6-6-6-6-6-6--|
A|--15-15-15-15-15-15-15-15-10-10-10-10-11-11-11-11-6-6-6-6-6-6-6-6-6-6-6-6-6-6-6-6--|
E|--13-13-13-13-13-13-13-13-8--8--8--8--9--9--9--9--4-4-4-4-4-4-4-4-4-4-4-4-4-4-4-4--|

Tab created by lukemcnier.
XxBlade411xX on Youtube.
^ This is if you want to hear the tab played with the song. ^

************************************

| b  Bend
| h  Hammer-on
| x  Dead note

************************************
Suggest correction
comments
print report bad tab
5 comments total. Showing first comments.
0 reply
Zeltrec 10 Sep 03, 2009 12:57 PM

Sounds perfect to me.
Nice cover on youtube btw.

0 reply
beatricek 41 Sep 11, 2009 09:47 AM

cool! thanks.

-1 reply
Daily Dose 10 Sep 12, 2009 01:53 AM

completely wrong , i'm going to tab the right one today.

Bestwishes,

guest
You may want to rate the tab now too:
select rating
Wanna post a correction for this tab? Suggest correction