Oops, an error
Loading. Please wait.

Brick By Boring Brick Bass Tab

version 2
version 2

Interactive

24,040 views 6 this week
no commentswrite comment
1 2 3 4 5
excellent!
x 4
add to favorites
launch autoscroll
font size
0
reset
guitar tuner
Tab Pro tools
  • play this tab
  • loop segment
  • change instrument
  • show fretboard
  • metronome
×
Best way to learn
"Brick By Boring Brick"
Autoscroll
slow
fast
+/-
esc
set tempo
stop
Contributor
Tuning
D A D G B E
Brick by boring brick bass tab by Andreqpo

Tuning= drop D

Intro (bass at 0:10)
|-9997776------------------------------------------------------------------|
|--------7--------------------------------------------------------7777779--|
|---------99999999444455550000000077755540--------4444555500000007-------7-|
|-----------------------------------------44444444-------------------------|

Verse
|------------------------------------------------------------------|
|---------------------------------------------------------7777779--|
|-99999999444455550000000077755540--------4444555500000007-------7-|
|---------------------------------44444444-------------------------|

|------------------------------------------------------------------|
|------------------------------------------------------------------|
|-99999999444455550000000077755540--------44445555000000000000000/-|
|---------------------------------44444444-------------------------|

Pre-chorus
|--------------------------------------------|
|--------------------------------------------|
|-7-7~-7-7~-9-9~-5-----7-7~-7-7~-9-9~-11-11~-|
|------------------0~------------------------|

Chorus
|--------------------------------------------------------------------|
|-------------2446---------------------------------------------------|
|-000000000000----4444444444444440-----------------------------------|
|---------------------------------444444444444444h622222222222222222-|

|--------------------------------------------------------------------|
|-------------2446---------------------------------------------------|
|-000000000000----4444444444444440-----------------77777777777777777-|
|---------------------------------44444444444444444------------------|

Post-chorus
|--------------------------------------------------------------6---|
|---------------------------------------------------------97979-7--|
|-99999999444455--0000000077755540--------4444555500000000-------7-|
|---------------------------------44444444-------------------------|

Verse

Pre-chorus

Chorus2
|--------------------------------------------------------------------|
|-------------2446---------------------------------------------------|
|-000000000000----4444444444444440-------------------------777777777-|
|---------------------------------444444444444444422222222/----------|

|--------------------------------------------------------------------|
|-------------2446---------------------------------------------------|
|-000000000000----4444444444444440-----------------------------------|
|---------------------------------4444444444444444422222222222222222-|

Bridge (11 it's eleven)
|------------------------------------------------------------------|
|------------------------------------------------------------------|
|-22222222222222225---------------00000000000000007777777777777775-|
|------------------000000000000000---------------------------------|

|--------------------------------------------------------------------|
|--------------------------------------------------------------------|
|-2222222222-2-2-2-----------------0000000000-0-0-0-7777777777777777-|
|------------------0000000000000000----------------------------------|

|----------------------------------------------------------------------------------|
|-777777777777777911111111111111111111111111111111---------------------------------|
|-------------------------------------------------99999999999999997777777777777777-|
|----------------------------------------------------------------------------------|

|----------------------------------------------------------------------|
|-777777777777777911111111111111111111111111111111---------------------|
|-------------------------------------------------99999999999999997~---|
|----------------------------------------------------------------------|

Chorus3
|---------------------------------------------------------------------|
|-------------2446----------------------------------------------------|
|-000000000000----4444444444444440--------------------------777777779-|
|---------------------------------444444444444444h622222222/----------|

|---------------------------------------------------------------------|
|-------------2446----------------------------------------------------|
|-000000000000----4444444444444440--------------------------777777777-|
|---------------------------------4444444444444444422222222/----------|

|------|
|------|
|-9~---|
|------|

Outro (bass at 3:58)
|----------------------------------|
|----------------------------------|x2
|-99999999444455550000000000000000-|
|----------------------------------|

100% accurate=) have fun!

comments
print report bad tab
I want to post or [tab]
guest
You may want to rate the tab now too:
select rating
Please do not post tabs as comments. Select "correction" instead!