Oops, an error
Loading. Please wait.

Brick By Boring Brick Tab

version 3
version 3

Interactive

328,829 views 291 this week
20 commentsread comments
1 2 3 4 5
excellent!
x 72
add to favorites
launch autoscroll
font size
0
reset
how to read this tab
guitar tuner
Autoscroll
slow
fast
+/-
esc
set tempo
stop
Help us to improve Ultimate-Guitar.com Take our survey!
×
Author
Difficulty
Tabbers playing skills
intermediate
advanced +
LIKE my Band Fan Page on FACEBOOK- https://www.facebook.com/SinceAstrid

Tabbed by Francis Twister
From Paramore Philippines(PARAWHORES)

Tuning: standard


[Intro]

(josh)

e|-0---------------0--------------0--------------0---------|
B|-0---------------0--------------0--------------0---------|
G|-11--(8x)--------11---(4x)------11--(4x)-------9---(16x)-|
D|-11--------------11-------------12-------------11--------|
A|-9---------------------------------------------0---------|
E|-----------------9--------------10-----------------------|(x4)

Taylor's part

(0:12)("pitch shifter")

e|-------------------------------------------------------------|
B|-------------------------------------------------------------|
G|----------11~--9~-----------------------11~--9~--------------|
D|-------7~----------11~---11^r~-------7~----------11~---11^r~-|
A|--7/9~--------------------------7/9~-------------------------|
E|-------------------------------------------------------------|


[Verse]

(0:36)
(Gtr 1)

e|-0---0---0---0------0---0---0---0----0---0---0---0---0---0---0---0---0--|
B|-0---0---0---0------0---0---0---0----0---0---0---0---0---0---0---0---0--|
G|-11--11--11--11-----11--11--11--11---9---9---9---9---9---9---9---9---9--|
D|-11--11--11--11-----11--11--12--12---11--11--11--11--11--11--11--11--11-|
A|-9---9---9---9------x---x---x---x----0---0---0---0---0---0---0---0---0--|
E|--------------------9---9---10--10--------------------------------------|(x2)

(Gtr 2)

e|----------------------------|---------------------------------|
B|----------------------------|---------------------------------|
G|----------11~--9~-----------|------------11~--9~--------------|
D|-------------------11~------|--------------------11~----------|
A|--7/9~----------------------|----7/9~-------------------------|
E|----------------------------|---------------------------------|


[Refrain]
(0:46)

(Gtr 1)

e|-----0~----0~------0~-------0~-|-----0~----0~-----0~----0~--|
B|-----0~----0~------0~-------0~-|-----0~----0~-----0~----0~--|
G|-----9~----9~------11~------7~-|-----9~----9~-----11~---14~-|
D|--9~----9~-----11~------7~-----|-9~-----9~----11~----14~----|
A|--7~----7~-----9~-------5------|-7------7-----9------11-----|
E|-------------------------------|----------------------------|

(Gtr 2)

e|----(0)---(0)------(0)-----(0)----(0)---(0)---(0)---(0)--|
B|----(0)---(0)------(0)-----(0)----(0)---(0)---(0)---(0)--|
G|---------------------------------------------------------|
D|--9~----(9~)-----11~------7~-----6~----(6)----7~----9~---|
A|---------------------------------------------------------|
E|---------------------------------------------------------|


[Chorus](2x)

(Gtr 1)

e|-0----------0---------0---------0-----------|
B|-0----------0---------0---------0-----------|
G|-x----------9---------x---------1-----------|
D|-7-(8x)-----9--(8x)---4-(8x)----2--(8x)-----|
A|-7----------x---------4---------2-----------|
E|-5----------9---------2---------0-----------|

 (Gtr 2)

e|--------------------------------------------------------|
B|------10-9-------------------------10-9~----------------|
G|-------------9~-----------------------------------------|
D|-7/11------------------------7/11-----------------------|
A|--------------------------------------------------------|
E|--------------------------------------------------------|

e|------0~-------------0~----------------------------------|
B|------0~-------------0~----------------------------------|
G|---------------------------------------------------------|
D|-7/6------6/7--7\6--------11~-/-9~---9/11--11-s--9~------|
A|---------------------------------------------------------|
E|---------------------------------------------------------|


Then - bass F# C#-D A
(Gtr 1) 
then

(1:25)

e|-0--------------0---------------0--------------0--------------0---------|
B|-0--------------0---------------0--------------0--------------0---------|
G|-9---(8x)-------11--(8x)--------11---(4x)------11--(4x)-------9---(16x)-|
D|-11-------------11--------------11-------------12-------------11--------|
A|-0--------------9---------------------------------------------0---------|
E|--------------------------------9--------------10-----------------------|

e|----------------------------------------------------|
B|----------------------------------------------------|
G|---------------------------11~-9~-------------------|
D|--11^r~----------------7~----------11~------11^r~---|
A|-------------------7/9------------------------------|
E|----------------------------------------------------|


[Verse]

(Gtr 1)

e|----------------------------|-12+~~~~~~~~~~~~~~~~~~~~~~~~~~~--|
B|----------------------------|---------------------------------|
G|----------------------------|---------------------------------|
D|--11~~~~~~~~~~~~~~~~~~~~~~--|---------------------------------|
A|----------------------------|---------------------------------|
E|----------------------------|---------------------------------|


[Chorus]


Interlude

(Gtr 1)

e|-x-----------x-----------x-----------x--------------|
B|-x-----------x-----------x-----------x--------------|
G|-11----------11----------6-----------1--------------|
D|-11-(16x)----12--(16x)---7----(16x)--2----(16x)-----|
A|-9-----------12----------7-----------2--------------|
E|-------------10----------5-----------0--------------|

(Gtr 2)

e|----------------------------------------------------------------------------------------------------------|
B|----------------------------------------------------------------------------------------------------------|
G|-xx-11--11--11--6-6-6--4-4-4-4-4-4-4-4-4-4-x-x-7-7-7-1-4-1-4-1-4-1-3-1-3-1-3-1-3-1-3-1-3-1-3-1-3-1-3-1-3--|
D|-xx----------------------------------------x-x------------------------------------------------------------|
A|-xx-9---9---9---4-4-4--2-2-2-2-2-2-2-2-2-2-x-x-5-5-5-1-2-1-2-1-2-1-1-1-1-1-1-1-1-1-1-1-1-1-1-1-1-1-1-1-1--|
E|----------------------------------------------------------------------------------------------------------|

e|---------------------------------------------------------------------------------|
B|---------------------------------------------------------------------------------|
G|-x-x-9-9-9-9-9-9-9-9-11-11-11-11-11-11-11-11-11-6-6-6-6-6-6-6-6-4-4-4-4-4-4-4-4--|
D|-x-x-----------------------------------------------------------------------------|
A|-x-x-7-7-7-7-7-7-7-7-9--9--9--9--9--9--9--9--9--4-4-4-4-4-4-4-4-2-2-2-2-2-2-2-2--|
E|---------------------------------------------------------------------------------|


Bridge

(Gtr 1)

e|-x-----------x-----------x-----------x--------------|
B|-x-----------x-----------x-----------x--------------|
G|-11----------11----------6-----------1--------------|
D|-11-(16x)----12--(16x)---7----(16x)--2----(16x)-----|with pausing...
A|-9-----------12----------7-----------2--------------|
E|-------------10----------5-----------0--------------|

(Gtr 2)

e|----------------------------------------------------------------------------------------------------------|
B|----------------------------------------------------------------------------------------------------------|
G|-xx-11--11--11--6-6-6--4-4-4-4-4-4-4-4-4-4-x-x-7-7-7-1-4-1-4-1-4-1-3-1-3-1-3-1-3-1-3-1-3-1-3-1-3-1-3-1-3--|
D|-xx----------------------------------------x-x------------------------------------------------------------|
A|-xx-9---9---9---4-4-4--2-2-2-2-2-2-2-2-2-2-x-x-5-5-5-1-2-1-2-1-2-1-1-1-1-1-1-1-1-1-1-1-1-1-1-1-1-1-1-1-1--|
E|----------------------------------------------------------------------------------------------------------|

e|---------------------------------------------------------------------------------|
B|---------------------------------------------------------------------------------|
G|-x-x-9-9-9-9-9-9-9-9-11-11-11-11-11-11-11-11-11-6-6-6-6-6-6-6-6-4-4-4-4-4-4-4-4--|
D|-x-x-----------------------------------------------------------------------------|
A|-x-x-7-7-7-7-7-7-7-7-9--9--9--9--9--9--9--9--9--4-4-4-4-4-4-4-4-2-2-2-2-2-2-2-2--|
E|---------------------------------------------------------------------------------|


[Bridge 2]

(Gtr 1)(let ring)

e|-0----------0---------0---------0-----------|
B|-0----------0---------0---------0-----------|
G|-6----------9---------11--------9-----------|
D|-7----------9---------11--------9-----------|
A|-7----------x---------9---------7-----------|
E|-5----------9-------------------------------|(x2)
                                  
(3:07)

e|---------------------------------------------------------|
B|-----------10-12--10-----9-10-------9~-------------------|
G|----9--9--------------9----------------------------------|
D|-11------------------------------------------------------|
A|---------------------------------------------------------|
E|---------------------------------------------------------|


[Chorus]
(3:42)
 
then
e|---------------------------------------------------------|
B|---------------------------------------------------------|
G|---------------------------------------------------------|
D|-4~------------------------------------------------------|
A|-4~------------------------------------------------------|
E|-2~------------------------------------------------------|

then
(3:48)

e|---------------------------------------------------------|
B|---------------------------------------------------------|
G|-11--(8x)--------11---(4x)------11--(4x)-------9---(16x)-|
D|-11--------------11-------------12-------------11--------|till end
A|-9---------------------------------------------0---------|
E|-----------------9--------------10-----------------------|
  *               *               *             *
(4:00)
e|---------------------------------------------------------|
B|---------------------------------------------------------|
G|---------------------------------------------------------|
D|-11r~---11r~----11r~---11r~-----11r~----11r~-----11r~----|till end
A|---------------------------------------------------------|
E|---------------------------------------------------------|

************************************

| x    Dead note
| (n)  Ghost note
| /    Slide up
| \    Slide down
| ~    Vibrato
| s    Slap

************************************
Suggest correction
comments
print report bad tab
20 comments total. Showing first comments.
0 reply
n.q.n 10 wrote on September 29 2009, 12:47 am

sounds perfect!
i love this song :)

0 reply
paramore-crazy 10 wrote on October 9 2009, 04:41 pm

sounds awesome good job =D

0 reply
John5646 10 wrote on October 15 2009, 08:30 pm

hey man thanks! i used to live around your area (LUTUCAN SARIAYA)! im overseas now! nice tabbing! sounds exactly right!!

guest
You may want to rate the tab now too:
select rating
Please do not post tabs as comments. Select "correction" instead!