Oops, an error
Loading. Please wait.

Brick By Boring Brick Bass Tab

version 4
version 4

Whole song

Interactive

1,452 views 1 this week
2 commentsread comments
1 2 3 4 5
3 more votes to show rating
add to favorites
launch autoscroll
font size
0
reset
guitar tuner
Autoscroll
slow
fast
+/-
esc
set tempo
stop
Help us to improve Ultimate-Guitar.com Take our survey!
×
Author
Difficulty
Tuning
novice
D# G# C# F# A# D#
-------------------------------------------------------------------------------
     BRICK BY BORING BRICK - Paramore
-------------------------------------------------------------------------------

Tabbed By : Alex Diaz
e-mail: AlexD97@live.se

Tuning: E flat/Half step down (EbAbDbGb/D#G#C#F#)

First tab. Great song. Please comment. Two-words sentences...

You can play this on standard by going down one fret,
and all the  Eb|1's are open E strings. 

Intro
0:11
Gb|-----10101010-888-7-------|
Db|-------------------8------|
Ab|--------------------------|
Eb|--------------------------|

                                 ---> 11 <----
Gb|---------------------------------------------------------------------------|
Db|---------------------------------------------------------------------------|
Ab|1010101010101010-----------------------------------------------------------|
Eb|-----------------101010-1111111111111111-66666666-13131313-1111111-10-6----|

Gb|---------------------------------------------------------------------------|
Db|---------------------------------------------------------------------------|
Ab|1010101010101010------------------------------------131313-14--------------|
Eb|-----------------101010-1111111111111111-66666666-13---------14------------|


Verse "she lives in a fairytale"
Gb|---------------------------------------------------------------------------|
Db|---------------------------------------------------------------------------|
Ab|1010101010101010-----------------------------------------------------------|
Eb|-----------------101010-1111111111111111-66666666-13131313-1111111-10-6----|

Gb|--------------------------------------------------------------------|
Db|--------------------------------------------------------------------|
Ab|---------------------------------------------131313-14--------------|
Eb|33333333--101010-1111111111111111-66666666-13---------14------------|

Gb|---------------------------------------------------------------------------|
Db|---------------------------------------------------------------------------|
Ab|1010101010101010-----------------------------------------------------------|
Eb|-----------------101010-1111111111111111-66666666-13131313-1111111-10-6----|

Gb|----------------------------------------------------------------|
Db|----------------------------------------------------------------|
Ab|----------------------------------------------------------------|
Eb|33333333-101010-1111111111111--6666666666666666-----------------|

Pre-chorus "keep your feet on the ground"
Gb|--------------------------|
Db|--------------------------|
Ab|--------------------------|
Eb|12-12~-14-14~-10-10~------|

Gb|--------------------------|
Db|--------------------------|
Ab|--------------------------|
Eb|12-12~-14-14~-16161616----|


                                       --> 1's <--
Chorus "go get your shovel"
G|-----------------------------------------------------------------------|
D|-----------------------------------------------------------------------|
A|----------------881010-------------------------------------------------|
E|6666666666666666------1010101010101010-3333333333333333-111111111111111|2x

This directly after chorus
Gb|---------------------------------------------------------------------------|
Db|---------------------------------------------------------------------------|
Ab|1010101010101010-----------------------------------------------------------|
Eb|-----------------101010-1111111111111111-66666666-13131313-1111111-10-6----|


G|---------------------------------------------------------------------------|
D|-------------------------------------------810810810810810810--------------|
A|------------------------------------------8------------------10------------|
E|33333333-101010-1010101010101010-66666666----------------------------------|

Verse "so one day they..."
Gb|---------------------------------------------------------------------------|
Db|---------------------------------------------------------------------------|
Ab|1010101010101010-----------------------------------------------------------|
Eb|-----------------101010-1111111111111111-66666666-13131313-1111111-10-6----|

Gb|--------------------------------------------------------------------|
Db|--------------------------------------------------------------------|
Ab|---------------------------------------------131313-14--------------|
Eb|33333333--101010-1111111111111111-66666666-13---------14------------|

Gb|---------------------------------------------------------------------------|
Db|---------------------------------------------------------------------------|
Ab|1010101010101010-----------------------------------------------------------|
Eb|-----------------101010-1111111111111111-66666666-13131313-1111111-10-6----|

Gb|----------------------------------------------------------------|
Db|----------------------------------------------------------------|
Ab|----------------------------------------------------------------|
Eb|33333333-999-1010101010101010--6666666666666666-----------------|

Pre-chorus "keep your feet on the ground"
Gb|--------------------------|
Db|--------------------------|
Ab|--------------------------|
Eb|12-12~-14-14~-10-10~------|

Gb|--------------------------|
Db|--------------------------|
Ab|--------------------------|
Eb|12-12~-14-14~-16161616----|

2:09
Chorus "go get your shovel"
Gb|-----------------------------------------------------------------------|
Db|-----------------------------------------------------------------------|
Ab|----------------881010-------------------------------------------------|
Eb|6666666666666666------1010101010101010-3333333333333333-111111111111111|2x

2:32
"woah, woooah"
Gb|-------------------------------------------------|
Db|-------------------------------------------------|
Ab|-------------------------------------------------|
Eb|8888888888888888-11111111111111111111111111111111|

Gb|----------------------------------|
Db|--10--10---10---10----------------|
Ab|88--88--888--88---8888888888888888|
Eb|----------------------------------|
 
Gb|---------------------------------------------------------------|
Db|---------------------------------------------------------------|
Ab|---------------------------------------------------------------|
Eb|8888888888888-8-8-8-11111111111111111111111111111111-----------|

Gb|-------------------------------------------|
Db|-------------------------------------------|
Ab|--------------------8888888888888888-------|
Eb|6666666666666-6-6-6------------------------|

2:56 "if it's not real"
Gb|-------------------------------------------------------|
Db|-------------------------------------------------------|
Ab|-------------------------------------------------------|
Eb|6666666666666666-8~-10101010101010101010101010101010-6~|

Gb|-------------------------------------------------|
Db|-------------------------------------------------|
Ab|10101010101010101010101010101010-8888888888888888|
Eb|-------------------------------------------------|

Gb|-------------------------------------------------------|
Db|-------------------------------------------------------|
Ab|-------------------------------------------------------|
Eb|6666666666666666-8~-10101010101010101010101010101010-6~|

Gb|-----------------------------------------|
Db|-----------------------------------------|
Ab|101010101010101010101010101010101010-8~--|
Eb|-----------------------------------------|

Chorus 3:18
Gb|-----------------------------------------------------------------------|
Db|-----------------------------------------------------------------------|
Ab|----------------881010-------------------------------------------------|
Eb|6666666666666666------1010101010101010-3333333333333333-111111111111111|2x


3:42 to 04:00 rest. Start playing at 04:00 when drums comes in.

Parapa parapa rara para rara parararararararararara.....
Gb|----------------------------------------------------|
Db|----------------------------------------------------|
Ab|10101010101010--------------------------------------|
Eb|--------------10101010-111111111111-6666666666666666|

Gb|-------------------------------------------------|
Db|-------------------------------------------------|
Ab|-------------------------------------------------|
Eb|33333333-101010-1111111111111111-6666666666666666|

Now, if you want to comment the SHEER BRILLIANCE of my tabbing,
or how it was as good as caterpillar fungus (don't eat it...seriously),
just comment!

| /  slide up
| \  slide down
| h  hammer-on
| p  pull-off
| ~  vibrato
| +  harmonic
| x  Mute note
===============================================================================
Suggest correction
Give kudos to tab author, rate the tab!
1 2 3 4 5
comments
print report bad tab
2 comments total.
0 reply
AlexD97 579 Jun 08, 2010 11:33 AM

I've updated it, but it doesn't seem to, well, update...

2 4
The 222444 is going to be replaced, and some other stuff.

0 reply
AlexD97 579 Jun 13, 2010 11:02 AM

Uhm, it's gone one week, it still hasn't updated ._.

guest
You may want to rate the tab now too:
select rating
Wanna post a correction for this tab? Suggest correction