Oops, an error
Loading. Please wait.

Brick By Boring Brick Tab

version 4
version 4

Interactive

18,206 views 1 this week
no commentswrite comment
1 2 3 4 5
accurate
x 4
add to favorites
launch autoscroll
font size
0
reset
how to read this tab
guitar tuner
Autoscroll
slow
fast
+/-
esc
set tempo
stop
Help us to improve Ultimate-Guitar.com Take our survey!
×
Contributor
Difficulty
teamjonas 2,657
intermediate
                    Brick By Boring Brick - Paramore

This is a bit of a rough version, oh well.
I know the Bridge looks a bit insane but, the chords ARE right.
Leave a comment, if you have any corrections :D

Intro:
Lead:
e|---------------------------------|
B|---------------------------------|
G|---------11-9-6~-6b7r6b7r6b7r6~--|
D|------7~-------------------------|  x2
A|-7h9-----------------------------|
E|---------------------------------|

Rhythm
e|------------------------------|
B|------------------------------|
G|-11-----11-----11-----9-------|
D|-11-x8--11-x4--11-x4--11-x16--|  x4
A|-9------x------x------0—------|
E|--------9------10-------------|

Verse:
[It’s all about the exposure...]
Lead:
e|------------------|
B|------------------|
G|---------11-9-6~--|
D|------7~----------|  x2
A|-7h9--------------|
E|------------------|

Rhythm:
e|--------------------------------------------------------|
B|--------------------------------------------------------|
G|-11-11-11-11--111111--11-11--9--9--9--9--9-9-9--9-9-9---|
D|-11-11-11-11--111111--11-11--11-11-11-11-111111-111111--|  x2
A|-9--9--9--9---x-x-x---x--x---0—-0--0--0--0-0-0--0-0-0---|
E|--------------9-9-9---10-10-----------------------------|

Pre-chorus:
Lead:
e|------------------------|
B|------------------------|
G|------------------------|
D|-9~-11~-6h7-6~---7~-9~--|
A|------------------------|
E|------------------------|

Rhythm:
e|-0~-0~-0~-0~--0~-0~-0~-0~-0~-0~-0~-0~--0~-0~-----------|
B|-0~-0~-0~-0~--0~-0~-0~-0~-0~-0~-0~-0~--0~-0~-----------|
G|-9~----9~----11~----7~----9~----9~----11~----13131313--|
D|-9~----9~----11~----7~----9~----9~----11~----13131313--|
A|-7~----7~-----9~----5~----7~----7~-----9~----11111111--|
E|-------------------------------------------------------|

Chorus:
e|--------------------------------------|
B|--------------------------------------|
G|----------99999999----------11111111--|
D|-77777777-99999999-44444444-22222222--|  x2
A|-77777777-xxxxxxxx-44444444-22222222--|
E|-55555555-99999999-22222222-00000000--|

Post-chorus:
Lead:
e|----------------------|
B|----------------------|
G|-------------11-9-6~--|
D|-11~------7~----------|
A|-----7h9--------------|
E|----------------------|

Rhythm:
e|------------------------------------------------------|
B|------------------------------------------------------|
G|-1111111111111111-11111111-11111111-9-9-9-9-9-9-9-9---|
D|-1111111111111111-11111111-11111111-1111111111111111--|
A|-9-9-9-9-9-9-9-9--9-9-9-9--x-x-x-x--0-0-0-0-0-0-0-0---|
E|---------------------------9-9-1010-------------------|

Verse:
[But, it was a trick...]
Lead:
e|------------------|
B|------------------|
G|---------11-9-6~--|
D|------7~----------|  x2
A|-7h9--------------|
E|------------------|

Rhythm:
e|--------------------------------------------------------|
B|--------------------------------------------------------|
G|-11-11-11-11--111111--11-11--9--9--9--9--9-9-9--9-9-9---|
D|-11-11-11-11--111111--11-11--11-11-11-11-111111-111111--|  x2
A|-9--9--9--9---x-x-x---x--x---0—-0--0--0--0-0-0--0-0-0---|
E|--------------9-9-9---10-10-----------------------------|

Pre-chorus:
Lead:
e|------------------------|
B|------------------------|
G|------------------------|
D|-9~-11~-6h7-6~---7~-9~--|
A|------------------------|
E|------------------------|

Rhythm:
e|-0~-0~-0~-0~--0~-0~-0~-0~-0~-0~-0~-0~--0~-0~-----------|
B|-0~-0~-0~-0~--0~-0~-0~-0~-0~-0~-0~-0~--0~-0~-----------|
G|-9~----9~----11~----7~----9~----9~----11~----13131313--|
D|-9~----9~----11~----7~----9~----9~----11~----13131313--|
A|-7~----7~-----9~----5~----7~----7~-----9~----11111111--|
E|-------------------------------------------------------|

Chorus:
e|--------------------------------------|
B|--------------------------------------|
G|----------99999999----------11111111--|
D|-77777777-99999999-44444444-22222222--|  x2
A|-77777777-xxxxxxxx-44444444-22222222--|
E|-55555555-99999999-22222222-00000000--|

Bridge:
[Strumming is a bit all over the place, listen to the song.]
e|--------------------------------------------------------------|
B|--------------------------------------------------------------|
G|-1111-66-4444-7777-14141414-13131313-9999-11111111-6666-4444--|
D|-x-x--xx-xxxx-xxxx--x-x-x-x--x-x-x-x-xxxx-x-x-x-x--xxxx-xxxx--|
A|-9-9--44-2222-5555-12121212-11111111-7777-9-9-9-9--4444-2222--|
E|--------------------------------------------------------------|

e|--------------------------------------------------------------------------|
B|--------------------------------------------------------------------------|
G|-1111-66-4444-4-4-7777-14141414-13131313-99999999-9-9-11111111-6666-4444--|
D|-x-x--xx-xxxx-x-x-xxxx--x-x-x-x--x-x-x-x-xxxxxxxx-x-x-x-x-x-x--xxxx-xxxx--|
A|-9-9--44-2222-2-2-5555-12121212-11111111-77777777-7-7-9-9-9-9--4444-2222--|
E|--------------------------------------------------------------------------|

e|--------------|
B|--------------|
G|----9~----1~--|
D|-7~-9~-4~-2~--|  x2
A|-7~-x--4~-2~--|
E|-5~-9~-2~-0~--|

Chorus:
e|--------------------------------------|
B|--------------------------------------|
G|----------99999999----------11111111--|
D|-77777777-99999999-44444444-22222222--|  x2
A|-77777777-xxxxxxxx-44444444-22222222--|
E|-55555555-99999999-22222222-00000000--|

Outro:
e|---------------------------------------------|
B|---------------------------------------------|
G|-11111111--1111--1111--9-9-9-9-9-9-9-9-9-9---|
D|-11111111--1111--1111--11111111111111111111--|  x4
A|-9-9-9-9---x-x---x-x---0—0-0-0-0-0-0-0-0-0---|
E|-----------9-9---1010------------------------|
   [                Palm Mute                ]
comments
print report bad tab
I want to post or [tab]
guest
You may want to rate the tab now too:
select rating
Please do not post tabs as comments. Select "correction" instead!