Oops, an error
Loading. Please wait.

Brick By Boring Brick Bass Tab

version 5
version 5

Whole song

Interactive

2,081 views 1 this week
no commentswrite comment
1 2 3 4 5
excellent!
x 3
add to favorites
launch autoscroll
font size
0
reset
guitar tuner
Autoscroll
slow
fast
+/-
esc
set tempo
stop
Help us to improve Ultimate-Guitar.com Take our survey!
×
Author
Difficulty
Tuning
intermediate
C# G# C# F# A# D#
-------------------------------------------------------------------------------
			     Brick By Boring Brick - Paramore
-------------------------------------------------------------------------------

Tabbed By : MusicMan24
e-mail: a7t1r1@hotmail.com

This song is in Drop D Flat, and none of the bass tabs for this song on
this site are in that tuning, so that's why I tabbed it.


Tuning: Drop Db (Gb Db Ab Db) Low to high


Intro x1  (0:10)

Gb|101010-888-7--------------------------------------|
Db|------------8-55555555----------------------------|
Ab|----------------------5555-6666--------888-666-5--|
Db|-------------------------------88888888---------8-|

Gb|------------------------------------|
Db|--------------------------88888810--|
Ab|--------5555-6666-----------------8-|
Db|55555555---------88888888-----------|


Verse x1

Gb|------------------------------------|
Db|55555555----------------------------|
Ab|--------5555-6666--------888-666-5--|
Db|-----------------88888888---------8-|

Gb|-----------------------------------|
Db|-------------------------88888810--|
Ab|--------5555-6666----------------8-|
Db|55555555---------88888888----------|

Gb|-----------------------------------------------------------------------|
Db|-----------------------------------------------------------------------|
Ab|--------5555-6666--------888-666-5----------5555-6666-8888888888888888-|
Db|55555555---------88888888---------8-55555555---------------------------|


Pre-Chorus x1

Gb|-----------------------------------------------------|
Db|-----------------------------------------------------|
Ab|8-8~--8-8~--10-10~--------8-8~--8-8~--10-10~--12-12~-|
Db|--------------------8-8~-----------------------------|


Chorus x2

Gb|---------------------------------------------------------------------|
Db|---------------------------------------------------------------------|
Ab|------------8101010-5555555555555555----------------8888888888888888-|
Db|888888888888------------------------5555555555555555-----------------|


Intro

Gb|----------------------------------------------------------------------7------|
Db|55555555------------------------------------------------------10810810--10-8-|
Ab|--------5555-6666--------888-666-5----------5555-6666------------------------|
Db|-----------------88888888---------8-55555555---------88888888----------------|


Verse x1
Pre-Chorus x1


Chorus x1

Gb|-----------------------------------------------------------------------------|
Db|-----------------------------------------------------------------------------|
Ab|------------8101010-5555555555555555---------------88888888/2020202020202020-|
Db|888888888888------------------------555555555555555--------------------------|

Gb|---------------------------------------------------------------------|
Db|---------------------------------------------------------------------|
Ab|------------8101010-5555555555555555----------------8888888888888888-|
Db|888888888888------------------------5555555555555555-----------------|


Bridge x1

Gb|------------------------------------------------------------------------|
Db|------------------------------------------------------------------------|
Ab|3333333333333333-6666666666666666---8---8------8---8---8888888888888888-|
Db|----------------------------------88--88--88-88--88--88-----------------|

Gb|----------------------------------------------------------------------|
Db|----------------------------------------------------------------------|
Ab|333333333333-3-3-3-6666666666666666------------------8888888888888888-|
Db|-----------------------------------888888888888-8-8-8-----------------|

Gb|-------------------------------------------------------------------|
Db|-------------------------------------------------------------------|
Ab|------------------5555555555555555----------------8888888888888888-|
Db|888888888888888-10----------------5555555555555555-----------------|

Gb|-----------------------------------------------------|
Db|-----------------------------------------------------|
Ab|------------------5555555555555555----------------8~-|
Db|888888888888888-10----------------5555555555555555---|


Chorus x2

Gb|-----------------------------------------------------------------------------|
Db|-----------------------------------------------------------------------------|
Ab|------------8101010-5555555555555555---------------88888888/2020202020202020-|
Db|888888888888------------------------555555555555555--------------------------|


Outro x2

Gb|------------------------------------------------------------------------|
Db|55555555----------------------------------------------------------------|
Ab|--------5555-6666-----------------------------5555-6666-----------------|
Db|-----------------88888888888888888888-55555555---------8888888888888888-|


Please rate and comment


PEACE OUT


| /  slide up
| \  slide down
| h  hammer-on
| p  pull-off
| ~  vibrato
| +  harmonic
| x  Mute note
===============================================================================
Suggest correction
What's this?
You can suggest a correction to this tab. Community and Mods will review your correction and vote to approve or reject it.
comments
We did not receive enough feedback on this tab! Please rate:
print report bad tab
1 2 3 4 5
guest
You may want to rate the tab now too:
select rating
Please do not post tabs as comments. Select "correction" instead!