Oops, an error
Loading. Please wait.

Brick By Boring Brick Tab

version 5
version 5

Interactive

19,617 views 1 this week
no commentswrite comment
1 2 3 4 5
x 7
add to favorites
launch autoscroll
font size
0
reset
how to read this tab
guitar tuner
Autoscroll
slow
fast
+/-
esc
set tempo
stop
Help us to improve Ultimate-Guitar.com Take our survey!
×
Difficulty
novice
-------------------------------------------------------------------------------
                             Brick By Boring Brick - Paramore
-------------------------------------------------------------------------------
Tabbed by: Matthew M
Email: nucleardelay@hotmail.com

Tuning: Standard 

Rhythm Intro
e|---------------------------------------------------------------------------|
B|---------------------------------------------------------------------------|
G|1111111111111111-----------------------------------------------------------|
D|x-x-x-x-x-x-x-x--11111111-12-12-12-12-77777777777777-----------------------| X4
A|9-9-9-9-9-9-9-9--x-x-x-x--x--x--x--x--xxxxxxxxxxxxxx-----------------------|
E|-----------------9-9-9-9--10-10-10-10-55555555555555-----------------------|

Lead Intro
e|-----------14-12-----------------------------------------------------------|
B|-----10----------14--14h15p14h15p14h15p14----------------------------------|
G|9h11----11-----------------------------------------------------------------|
D|---------------------------------------------------------------------------| X2
A|---------------------------------------------------------------------------|
E|---------------------------------------------------------------------------|

Rhythm Verse
e|---------------------------------------------------------------------------|
B|---------------------------------------------------------------------------|
G|11-11-11-11--6-6-7-7-------------------------------------------------------|
D|11-11-11-11--6-6-7-7-7-7-7-7-7-7-7-7---------------------------------------| X2
A|9--9--9--9---4-4-5-5-7-7-7-7-7-7-7-7---------------------------------------|
E|---------------------5-5-5-5-5-5-5-5---------------------------------------|

Lead Verse
e|---14-12-------------------------------------------------------------------|
B|---------14----------------------------------------------------------------|
G|11-------------------------------------------------------------------------|
D|---------------------------------------------------------------------------| X2
A|---------------------------------------------------------------------------|
E|---------------------------------------------------------------------------|

Rhythm Pre Chorus
e|---------------------------------------------------------------------------|
B|---------------------------------------------------------------------------|
G|9-9-9-9-9-9-11-11-11-7-7-7-9-9-9-9-9-9-11-11-11----------------------------|
D|9-9-9-9-9-9-11-11-11-7-7-7-9-9-9-9-9-9-11-11-11-13-13-13-------------------| X1
A|7-7-7-7-7-7-9--9--9--5-5-5-7-7-7-7-7-7-9--9--9--11-11-11-------------------|
E|---------------------------------------------------------------------------|

Lead Pre Chorus
e|---------------------------------------------------------------------------|
B|---------------------------------------------------------------------------|
G|--9-----9------9------9------9-----9------9--------------------------------|
D|---------------------------------------------------------------------------| X1
A|7---7-7---7--9---9--5---5--7---7-7---7--9---9--11--------------------------|
E|---------------------------------------------------------------------------|

Chorus
e|---------------------------------------------------------------------------|
B|---------------------------------------------------------------------------|
G|-----------6666666666-11111111111111111111-9999999999----------------------|
D|7777777777-6666666666-11111111111111111111-9999999999----------------------| X2
A|7777777777-4444444444-9-9-9-9-9-9-9-9-9-9--7777777777----------------------|
E|5555555555-----------------------------------------------------------------|

Bridge
e|---------------------------------------------------------------------------|
B|---------------------------------------------------------------------------|
G|-----------7777777777------------9999999999--------------------------------|
D|9999999999-7777777777-7777777777-9999999999--------------------------------|
A|9999999999-5555555555-7777777777-7777777777--------------------------------|
E|7777777777------------5555555555-------------------------------------------|

Outro
e|---------------------------------------------------------------------------|
B|---------------------------------------------------------------------------|
G|11-11-11-11--6-6-7-7-------------------------------------------------------|
D|11-11-11-11--6-6-7-7-7-7-7-7-7-7-7-7---------------------------------------| X4
A|9--9--9--9---4-4-5-5-7-7-7-7-7-7-7-7---------------------------------------|
E|---------------------5-5-5-5-5-5-5-5---------------------------------------|

That's most of it, some of the lead parts are quite hard to hear.

| /  slide up
| \  slide down
| h  hammer-on
| p  pull-off
| ~  vibrato
| +  harmonic
| x  Mute note
===============================================================================
Suggest correction
comments
print report bad tab
guest
You may want to rate the tab now too:
select rating
Wanna post a correction for this tab? Suggest correction