Oops, an error
Loading. Please wait.

Brick By Boring Brick Bass Tab

version 6
version 6

Interactive

2,303 views 9 this week
no commentswrite comment
1 2 3 4 5
please rate
add to favorites
launch autoscroll
font size
0
reset
guitar tuner
Tab Pro tools
  • play this tab
  • loop segment
  • change instrument
  • show fretboard
  • metronome
Autoscroll
slow
fast
+/-
esc
set tempo
stop
Contributor
Difficulty
Tuning
novice
D A D G B E
-----------------------------------------------------------------------------
			     Paramore-Brick by Boring Brick
-----------------------------------------------------------------------------

Tabbed By: Eddy
Tuning: Drop D (DADG)
This sounds AWESOME :)
If there is any mistakes, you can post it in the comments :)

Intro
G|9997676--------------------------------------|
D|--------7------------------------------------|
A|----------99999997-44445555-00000000-7~-5~-0~|
D|---------------------------------------------|

G|------------------------------------|
D|---------------------------7777777--|
A|99999997-44445555-00000000--------7-|
D|------------------------------------|

verse "she lived in a fairy tale"
G|-----------------------------------------------------------------------|
D|---------------------------------------------------------------7777779-|
A|99999999-44445555-00000000-77755540----------44445555-00000007--------7|
D|------------------------------------44444444---------------------------|

"it's all about the exposure"
G|-------------------------------------------------------------------------|
D|-------------------------------------------------------------------------|
A|99999999--------------0000000000000000----------44445555-0000000000000000|
D|---------11(x4)12(x4)------------------44444444--------------------------|

pre-chorus "keep your feet on the ground"
G|----------------------------------------------|
D|------------------------------------4-4~--6-6~|
A|7-7~--7-7~--9-9~--5-5~------------------------|
D|------------------------2-2~--2-2~------------|

chorus "Go get your shovel"
G|-------------------------------------------------------------------|
D|------------2222---------------------------------------------------|
A|000000000000-----4444444444444444----------------------------------|
D|----------------------------------4444444444444444-2222222222222222|

G|-------------------------------------------------------------------|
D|------------2222---------------------------------------------------|
A|000000000000-----4444444444444444------------------7777777777777777|
D|----------------------------------4444444444444444-----------------|

intro again:
G|---------------------------------------------------------------------------|
D|------------------------------------------------------------------------0--|
A|99999999--------------00000000-7~-5~-0~----------44445555-00000000---024-40|
D|---------11(x4)12(x4)-------------------44444444-------------------24------|

verse "so one day he found her crying"
G|---------------------------------------------------------------------------|
D|-------------------------------------------------------------------7777779-|
A|99999999--------------00000000-77755540----------44445555-00000007--------7|
D|---------11(x4)12(x4)-------------------44444444---------------------------|

"but it was a trick"
G|--------------------------------------------------------------------------|
D|-------------------------------2220-0-------------------------------------|
A|99999999--------------00000000-----4-40----------44445555-0000000000000000|
D|---------11(x4)12(x4)-------------------44444444--------------------------|

pre-chorus "keep your feet on the ground"
G|----------------------------------------------|
D|------------------------------------4-4~--6-6~|
A|7-7~--7-7~--9-9~--5-5~------------------------|
D|------------------------2-2~--2-2~------------|

chorus "Go get your shovel"
G|-------------------------------------------------------------------|
D|------------2222---------------------------------------------------|
A|000000000000-----4444444444444444----------------------------------|
D|----------------------------------4444444444444444-2222222222222222|

G|-------------------------------------------------------------------|
D|------------2222---------------------------------------------------|
A|000000000000-----4444444444444444------------------7777777777777777|
D|----------------------------------4444444444444444-----------------|

"castle, whoa whoa oh..."
G|-------------------------------------------------------------------|
D|-------------------------------------------------------------------|
A|2222222222222222-5555555555555555-0000000000000000-7777777777777777|
D|-------------------------------------------------------------------|

G|------------------------------------------------------------------|
D|-------------------------------------------------22222222222222222|
A|22222222222-2-2-5555555555555555-00000000000-0-0------------------|
D|------------------------------------------------------------------|

"if it's not real you can't hold it.."
G|------------------------------------------------------------------|
D|------------------------------------------------------------------|
A|0000000000000002-444444444444444----------------------------------|
D|---------------------------------444444444444444-2222222222222222-|

G|------------------------------------------------------|
D|------------------------------------------------------|
A|0000000000000002-4444444444444444---------------------|
D|----------------------------------4444444444444444-2~-|

chorus "Go get your shovel"
G|--------------------------------------------------------------------|
D|------------2222----------------------------------------------------|
A|000000000000-----4444444444444444---------------------------77777777|
D|----------------------------------4444444444444444-22222222---------|x2

G|---|
D|---|  REST AWHILE .....
A|9~-|
D|---|

outro (starts when drum enters)
G|----------------------------------------------------------------------|
D|----------------------------------------------------------------------|
A|99999999-44445555-0000000000000000----------44445555-0000000000000000-|
D|-----------------------------------44444444---------------------------|

TAB BY:
Eddy 
comments
We did not receive enough feedback on this tab! Please rate:
print report bad tab
1 2 3 4 5
I want to post or [tab]
guest
You may want to rate the tab now too:
select rating
Please do not post tabs as comments. Select "correction" instead!