Oops, an error
Loading. Please wait.

Brick By Boring Brick Tab

version 7
version 7

Interactive

3,975 views 1 this week
no commentswrite comment
1 2 3 4 5
please rate
add to favorites
launch autoscroll
font size
0
reset
how to read this tab
guitar tuner
Autoscroll
slow
fast
+/-
esc
set tempo
stop
Help us to improve Ultimate-Guitar.com Take our survey!
×
Difficulty
intermediate
-------------------------------------------------------------------------------
                             Paramore - Brick by Boring Brick
-------------------------------------------------------------------------------

Rhythm Guitar Part - Standard Tuning - EADGBe 

Intro 4x

|-----------------------------|
|-----------------------------|
|--------6-----7------2-------|
|-4------6-(4x)7-(4x)-2-(16x)-|
|-4-(8x)-4-----5------0-------|
|-2---------------------------|

Verse 2x

|-----------------------------|
|-----------------------------|
|--------6------7------2------|
|-4------6-(2x)-7-(2x)-2-(8x)-|  
|-4-(4x)-4------5------0------|
|-2---------------------------|

Pre-Chorus

|----0~----0~------0~------0~---|----0~-----0~-----0~-----0~---|
|----0~----0~------0~------0~---|----0~-----0~-----0~-----0~---|
|----9~----9~------11~-----7~---|----9~-----9~-----11~----14~--|
|-9~----9~-----11~------7~------|-9~-----9~----11~----14~------|
|-7~----7~-----9~-------5~------|-7~-----7~----9~-----11~------|
|-------------------------------|------------------------------|

Chorus 2x

|---------------------------------|
|---------------------------------|
|-2-------6-----------------------|
|-2-(16x)-6-(16x)-4-------2-------|
|-0-------4-------4-(16x)-2-(16x)-|
|-----------------2-------0-------|

Post-Chorus

|------------|
|------------|
|-7--2-------|
|-7--2-(13x)-|
|-5--0-------|
|------------|

Intro 

|-----------------------------|
|-----------------------------|
|--------6-----7------2-------|
|-4------6-(4x)7-(4x)-2-(16x)-|
|-4-(8x)-4-----5------0-------|
|-2---------------------------|

Verse 2x

|----------------------------|
|----------------------------|
|--------6-----7------2------|
|-4------6-(2x)7-(2x)-2-(8x)-|  
|-4-(4x)-4-----5------0------|
|-2--------------------------|

Pre-Chorus

|----0~----0~------0~-------0~-|-----0~----0~-----0~----0~--|
|----0~----0~------0~-------0~-|-----0~----0~-----0~----0~--|
|----9~----9~------11~------7~-|-----9~----9~-----11~---14~-|
|-9~----9~-----11~------7~-----|-9~-----9~----11~----14~----|
|-7~----7~-----9~-------5------|-7------7-----9------11-----|
|------------------------------|----------------------------|

Chorus 2x

|---------------------------------|
|---------------------------------|
|-2-------6-----------------------|
|-2-(16x)-6-(16x)-4-------2-------|
|-0-------4-------4-(16x)-2-(16x)-|
|-----------------2-------0-------|

Bridge


|---------------------------------|
|---------------------------------|
|-4-------7-------2---------------|
|-4-(16x)-7-(16x)-2-(16x)-2-------|
|-2-------5-------0-------2-(16x)-|
|-------------------------0-------|

|-----------------------------------------|
|-----------------------------------------|
|-11------6-6---4------9------7-7--4------|
|-x-(8x)--x-x---x-(8x)-x-(8x)-x-x--x-(8x)-|
|-9-------4-4---2------7------5-5--2------|
|-----------------------------------------|

|---------------------|
|---------------------|
|-2~---6~-------------| 
|-2~---6~---4~---2~---| 2x
|-0~---4~---4~---2~---|
|-----------2~---0~---|

Chorus 2x

|---------------------------------|
|---------------------------------|
|-2-------6-----------------------|
|-2-(16x)-6-(16x)-4-------2-------| the second time, let the E power chord ring
|-0-------4-------4-(16x)-2-(16x)-|
|-----------------2-------0-------|

Outro 4x

|-----------------------------|
|-----------------------------|
|--------6-----7------2-------| 
|-4------6-(4x)7-(4x)-2-(16x)-| palm muted
|-4-(8x)-4-----5------0-------|
|-2---------------------------|

|------|
|------|
|-2~---|
|-2~---|
|-0~---|
|------|




************************************

| /   slide up
| \   slide down
| h   hammer-on
| p   pull-off
| ~   vibrato
| +   harmonic
| x   Mute note
| b   Bend
| pb  Pre-bend
| br  Bend release
| pbr Pre-bend release
| brb Bend release bend

************************************

Suggest correction
What's this?
You can suggest a correction to this tab. Community and Mods will review your correction and vote to approve or reject it.
comments
We did not receive enough feedback on this tab! Please rate:
print report bad tab
1 2 3 4 5
guest
You may want to rate the tab now too:
select rating
Please do not post tabs as comments. Select "correction" instead!