Oops, an error
Loading. Please wait.

Brighter Tab

version 5
version 5

Interactive

4,045 views 3 this week
no commentswrite comment
1 2 3 4 5
please rate
add to favorites
launch autoscroll
font size
0
reset
how to read this tab
guitar tuner
Autoscroll
slow
fast
+/-
esc
set tempo
stop
Help us to improve Ultimate-Guitar.com Take our survey!
×
Author
Key: A

Tuning: Standard EADGBe

Chords used:
A -    x02220
F#m -  244222
D -    xx0232
E -    022100
E/G# - 476xxx


Intro:

Part 1: A

Guitar 2:
e|-----4-4-----4-4----------|
B|-----5-5-----5-5----------|
G|-1h2-----1h2--------------|
D|--------------------------| (x2)
A|-----------------4h5p4h5--|
E|--------------------------|

Part 2: A--F#m--D--E

Guitar 2:
      x2 this part           at time 0:013 this part
e|-------------------------|-----5---7---9----5-5-x--4--|
B|-------------------------|-2-3---3---5---5------x-----|
G|-------------------------|----------------------x-----|
D|-6h7p6-6-6h7p6-----------|----------------------x-----|
A|----------------4h5p4h5--|----------------------x-----|
E|-------------------------|----------------------x-----|


Verse 1:
F#m          E      D
  so this is how it goes
      F#m            E     D
well I, I would have never known
F#m         E      D
  and if it ends today
well I'll still say that
F#m       E/G#          D
you shine brighter than anyone


Guitar 2:
   x2 this part
e|-------5--------|-------5---7---5-------7---5------|
B|---5------5---5-|---5---------------5-----------5--|
G|----------------|----------------------------------|
D|-7---7------7---|-7---7---7---7---7---7---7---7----|
A|----------------|----------------------------------|
E|----------------|----------------------------------|


Chorus:
A                                 F#m
now I think we're taking this too far
                    D
don't you know that it's not this hard
          E
well it's not this hard
A
but if you take what's yours
           F#m
and I take mine
must we go there
D
please, not this time
    E
no, not this time


Verse 2:
F#m            E        D
  well this is not your fault
                   F#m
but if I'm without you then
       E        D
I will feel so small
F#m          E       D
  and if you have to go
                       F#m
we'll always know that you
      E/G#          D
shine brighter than anyone does


(Repeat Chorus)


Interlude: F#m--E--D--E x2

Guitar 2:
e|----------------17~-----------------------|
B|-12/14---------------12/14----------------|
G|-------14-13-14------------14-13----------|
D|---------------------------------16~--14--|
A|------------------------------------------|
E|------------------------------------------|

e|----------------17~--17-16----------------|
B|-12/14---------------------19-14-15-17~---|
G|-------14-13-14---------------------------|
D|------------------------------------------|
A|------------------------------------------|
E|------------------------------------------|


Bridge:
   F#m    E D      E
if you run away now
     F#m     E/G#   D(hold)
will you come back around?


Verse 3:
F#m          E    D
  and if you ran away
                   F#m
I'd still wave goodbye
             E           D(hold)
watching you shine bright

(Repeat Chorus)
(Repeat Interlude)


Outro:
F#m                 E
  and I'll wave goodbye
             D           E
watching you shine bright
F#m                 E/G#  D(hold)
  and I'll wave goodbye tonight
Suggest correction
What's this?
You can suggest a correction to this tab. Community and Mods will review your correction and vote to approve or reject it.
comments
We did not receive enough feedback on this tab! Please rate:
print report bad tab
1 2 3 4 5
guest
You may want to rate the tab now too:
select rating
Please do not post tabs as comments. Select "correction" instead!