Oops, an error
Loading. Please wait.

Brighter Tab

version 6
version 6

Interactive

4,919 views 1 this week
7 commentsread comments
1 2 3 4 5
accurate
x 11
add to favorites
launch autoscroll
font size
0
reset
how to read this tab
guitar tuner
Tab Pro tools
  • play this tab
  • loop segment
  • change instrument
  • show fretboard
  • metronome
×
Best way to learn
"Brighter"
Autoscroll
slow
fast
+/-
esc
set tempo
stop
Contributor
Drop D
Brighter by Paramore
Tab by Nhikko Lorenzzi
friendster>> nhikkolorenzzi@yahoo.com

can't find the nice tab for this song

so i tab it!


this is how i play it


Intro


Guitar 1


e------------------------------------------|
B------------9-9---------9-9---------------|
G------------9-9---------9-9----6h7p6h7----| 2 times
D-----6h7---------6h7----------------------|
A------------------------------------------|
D------------------------------------------|


Guitar 2

Idle


Guitar 1


e------------------------------------------|
B------------9-9---------9-9---------------|
G------------9-9---------9-9----6h7p6h7----| 2 times
D-----6h7---------6h7----------------------|
A------------------------------------------|
D------------------------------------------|


e---------5---7---9---------------|
B---------------------10-10--9----|
G-----6-7---7---7---9-------------|
D---------------------------------|
A---------------------------------|
D---------------------------------|


Guitar 2


e-----------------------------------------------------------|
B-----------------------------------------------------------|
G---------------------------7-------------------------------|
D-------7---------4---------7--x16---7-7--xx---6------------|
A-------7--x16----4--x16----5--------7-7--xx---6------------|
D-------7---------4------------------7-7--xx---6------------|



1st Verse

Guitar 1

e-----------------------------7--------7---------|
B---10---------10----------10---10--------10-----|
G-9----9---9-9----9----9-9-----------9-----------| 4 times
D------------------------------------------------|
A------------------------------------------------|
D------------------------------------------------|


Guitar 2

e----------------------------------------|
B----------------------------------------|
G----------------------------------------|
D----------------------------------------| 2 times
A----------------------------------------|
D-------7---------4--------0---0---------|


e----------------------------------------|
B----------------------------------------|
G----------5---------6--------14----14---| 2 times
D---------5---------6--------14----14----|
A--------7---------4--------12----12-----|
D-------7---------4--------12----12------|


Chorus


Guitar 1


e------------------------------------------|
B------------9-9---------9-9---------------|
G------------9-9---------9-9----6h7p6h7----| 2 times
D-----6h7---------6h7----------------------|
A------------------------------------------|
D------------------------------------------|


e---------5---7---9---------------|
B---------------------10-10-9-----|
G-----6-7---7---7---9-------------|
D---------------------------------|
A---------------------------------|
D---------------------------------|

Guitar 2

e-----------------------------------------------------------|
B-----------------------------------------------------------|
G---------------------------7-------------------------------| 2 times
D-------7---------4---------7--x16---7-7--xx---6------------|
A-------7--x16----4--x16----5--------7-7--xx---6------------|
D-------7---------4------------------7-7--xx---6------------|




2nd Verse


Guitar 1

e-----------------------------7--------7---------|
B---10---------10----------10---10--------10-----|
G-9----9---9-9----9----9-9-----------9-----------| 4 times
D------------------------------------------------|
A------------------------------------------------|
D------------------------------------------------|

Guitar 2

e----------------------------------------|
B----------------------------------------|
G----------------------------------------|
D----------------------------------------| 2 times
A----------------------------------------|
D-------7---------4--------0---0---------|


e----------------------------------------|
B----------------------------------------|
G----------5---------6--------14----14---| 2 times
D---------5---------6--------14----14----|
A--------7---------4--------12----12-----|
D-------7---------4--------12----12------|

chorus

Guitar 1


e------------------------------------------|
B------------9-9---------9-9---------------|
G------------9-9---------9-9----6h7p6h7----| 2 times
D-----6h7---------6h7----------------------|
A------------------------------------------|
D------------------------------------------|


e---------5---7---9---------------|
B---------------------10-10-9-----|
G-----6-7---7---7---9-------------|
D---------------------------------|
A---------------------------------|
D---------------------------------|


 Guitar 2

e-----------------------------------------------------------|
B-----------------------------------------------------------|
G---------------------------7-------------------------------| 2 times
D-------7---------4---------7--x16---7-7--xx---6------------|
A-------7--x16----4--x16----5--------7-7--xx---6------------|
D-------7---------4------------------7-7--xx---6------------|




Adlib


guitar 1

e-----------------17------------------------|
B---14-----------------14-------------------|
G-------14-13-14-----------14-13-14-11------|
D--------------------------------------11---|
A-------------------------------------------|
D-------------------------------------------|


e-----------------17-----17-16-14-----------|
B---14----------------------------14-15-17--|
G------14-13-14-----------------------------|
D-------------------------------------------|
A-------------------------------------------|
D-------------------------------------------|

Guitar 2

e-----------------------------------------------|
B-----------------------------------------------|
G-----------------------------------------------|
D--4-----------2--------0-------000-222---------| 2 times
A--4-x3--------2--x3----0-x3----000-222---------|
D--4-----------2--------0-------000-222---------|


Bridge

Guitar 1

e--------12---------12-----------------|
B--9/10-----9/10--------9/10-----------|
G--------------------------------------| 4 times
D--------------------------------------|
A--------------------------------------|
D--------------------------------------|


Guitar 2

e-----------------------------------------------|
B-----------------------------------------------|
G-----------------------------------------------|
D--4-----------2--------0-----0-0-0---2-2-2-----|
A--4-x8--------2-x8-----0-x8--0-0-0---2-2-2-----|
D--4-----------2--------0-----0-0-0---2-2-2-----|


e-----------------------------|
B-----------------------------|
G-----------------------------|
D--4-----------2--------0-----| let it ring
A--4-x8--------2-x3-----0-----|
D--4-----------2--------0-----|



3rd Verse


Guitar 1

e-----------------------------7--------7---------|
B---10---------10----------10---10--------10-----|
G-9----9---9-9----9----9-9-----------9-----------| 2 times
D------------------------------------------------|
A------------------------------------------------|
D------------------------------------------------|


 Guitar 2

e----------------------------------------|
B----------------------------------------|
G----------------------------------------|
D----------------------------------------|
A----------------------------------------|
D-------7---------4--------0---0---------|


e---------------------------------|
B---------------------------------|
G----------5---------6-------7----|
D---------5---------6--------7----| let it ring
A--------7---------4---------5----|
D-------7---------4---------------|


Chorus


Guitar 1


e------------------------------------------|
B------------9-9---------9-9---------------|
G------------9-9---------9-9----6h7p6h7----| 2 times
D-----6h7---------6h7----------------------|
A------------------------------------------|
D------------------------------------------|


e---------5---7---9---------------|
B---------------------10-10-9-----|
G-----6-7---7---7---9-------------|
D---------------------------------|
A---------------------------------|
D---------------------------------|


Guitar 2

e-----------------------------------------------------------|
B-----------------------------------------------------------|
G---------------------------7-------------------------------| 2 times
D-------7---------4---------7--x16---7-7--xx---6------------|
A-------7--x16----4--x16----5--------7-7--xx---6------------|
D-------7---------4------------------7-7--xx---6------------|


Adlib again

guitar 1

e-----------------17------------------------|
B---14-----------------14-------------------|
G-------14-13-14-----------14-13-14-11------|
D--------------------------------------11---|
A-------------------------------------------|
D-------------------------------------------|


e-----------------17-----17-16-14-----------|
B---14----------------------------14-15-17--|
G------14-13-14-----------------------------|
D-------------------------------------------|
A-------------------------------------------|
D-------------------------------------------|


Guitar 2

e-----------------------------------------------|
B-----------------------------------------------|
G-----------------------------------------------|
D--4-----------2--------0-------000-222---------| 2 times
A--4-x3--------2--x3----0-x3----000-222---------|
D--4-----------2--------0-------000-222---------|



Outro

Guitar 1

e--------12---------12-----------------|
B--9/10-----9/10--------9/10-----------|
G--------------------------------------| 4 times
D--------------------------------------|
A--------------------------------------|
D--------------------------------------|

Guitar 2

e-----------------------------------------------|
B-----------------------------------------------|
G-----------------------------------------------|
D--4-----------2--------0-----0-0-0---2-2-2-----|
A--4-x8--------2-x8-----0-x8--0-0-0---2-2-2-----|
D--4-----------2--------0-----0-0-0---2-2-2-----|


e-----------------------------|
B-----------------------------|
G-----------------------------|
D--4-----------2--------0-----| let it ring
A--4-x8--------2-x3-----0-----|
D--4-----------2--------0-----|


please rate it

sana magustuhan
comments
print report bad tab
7 comments total. Showing first comments. show 1 bad comment
+2 reply
tabhunter123 wrote on May 14 2009, 08:26 am

whats wrong dudE? but i think its a good tab

+1 reply
ultimategitar88 wrote on May 14 2009, 11:04 am

thanks for this tab

I want to post or [tab]
guest
You may want to rate the tab now too:
select rating
Please do not post tabs as comments. Select "correction" instead!