Oops, an error
Loading. Please wait.

Careful Tab

version 2
version 2

Interactive

107,153 views 21 this week
14 commentsread comments
1 2 3 4 5
excellent!
x 27
add to favorites
launch autoscroll
font size
0
reset
how to read this tab
guitar tuner
Autoscroll
slow
fast
+/-
esc
set tempo
stop
Help us to improve Ultimate-Guitar.com Take our survey!
×
Author
Difficulty
Tuning
intermediate
C# G# C# F# A# D#
-------------------------------------------------------------------------------
                             CAREFUL - Paramore
-------------------------------------------------------------------------------
Tabbed by: rockett97
Email: rockett97@hotmail.com


So hey, this is Careful off Paramore’s new album, brand new ryes! 
I tabbed the lead and rhythm separately. 
The lead is pretty much spot on I think, no mistakes in my opinion..
the rhythm however, was a lot more difficult to hear and to tab out. 
So there might be some parts missing or wrong, 
but ill update as soon as I figure them out!

Have fun, and don’t forget to RATE AND COMMENT!


Tuning: Drop C#

LEAD GUITAR

Intro

d#|------------------9-10-9-12----------------------------------|
A#|-9-10-9-10-9----------------10----9-10-9-10-9------12--10--9-|
F#|-------------11-9-----------------------------11-9-----------|
C#|-------------------------------------------------------------|
G#|-------------------------------------------------------------|
C#|-------------------------------------------------------------|

d#|------------------9-10-9-12--------------------------------------|
A#|-9-10-9-10-9----------------10----9-10-9-10-9------12--10--9--10-|(let ring)
F#|-------------11-9-----------------------------11-9---------------|
C#|-----------------------------------------------------------------|
G#|-----------------------------------------------------------------|
C#|-----------------------------------------------------------------|

Verse

d#|-------12-----12-----------12-----12---12-------9-|
A#|----10-----10-----10----10-----10------------10---|(let ring)
F#|-11-----11-----11----11-----11------11----11------|
C#|--------------------------------------------------|
C#|--------------------------------------------------|
C#|--------------------------------------------------|

Then, after the small pause, harshly (just don’t destroy your strings:P)
pluck the three upper string (e, B and G), so you get this ‘tearing-like’ sound 
..don’t know all these guitarterms but you should be able to figure it out yourself;))

d#|-0----------12-----12-----------12-----12---|
A#|-0-------10-----10-----10----10-----10------|
F#|-0----11-----11-----11----11-----11------11-|
C#|--------------------------------------------|
G#|--------------------------------------------|
C#|--------------------------------------------|

Then directly after:

d#|-----------------------------------------------------------------------------|
A#|-----------------------------------------------------------------------------|
F#|-----------------------------------------------------------------------------|
C#|-11---11---11---11---11---11---11---11---9---9---9---9---11---11---11---11---|
G#|---12---12---12---12---11---11---11---11--11--11--11--11---12---12---12---12-|
C#|-----------------------------------------------------------------------------|
     x x  x x  x x  x x  x x  x x  x x  x x x x x x x x x x x x  x x  x x  x x

d#|------------------------------------------------------------|
A#|------------------------------------------------------------|
F#|------------------------------------------------------------|
C#|-11---11---11---11---11---11---11---11---9---9---9---9---7--|
G#|---12---12---12---12---11---11---11---11--11--11--11--11--9-|
C#|------------------------------------------------------------|
     x x  x x  x x  x x  x x  x x  x x  x x x x x x x x x x x 

Chorus

d#|-----------------------------------------------------------------------|
A#|-----------------------------------------------------------------------|
F#|-11-11-11\6-6-6/9-9-9-9-9-9-9-9-9-9/11-11-11\6-6-6\4-4-4-4-4-4-4-4-4-4-|
C#|-x--x--x--x-x-x-x-x-x-x-x-x-x-x-x-x-x--x--x--x-x-x-x-x-x-x-x-x-x-x-x-x-|(x2)
G#|-9--9--9-\4-4-4/7-7-7-7-7-7-7-7-7-7/9--9--9-\4-4-4\2-2-2-2-2-2-2-2-2-2-|
C#|-----------------------------------------------------------------------|

d#|-------9--------------7------------------9---------------7------|
A#|-----7--------7-10--7----7-10--7-------7---------7-10--7-----9^-|
F#|-7h9------7h9----------------------7h9-------7h9----------------|
C#|----------------------------------------------------------------|
G#|----------------------------------------------------------------|
C#|----------------------------------------------------------------|

d#|------------------9-10-9-12--------------------------------------|
A#|-9-10-9-10-9----------------10----9-10-9-10-9------12--10--9--10-|(let ring)
F#|-------------11-9-----------------------------11-9---------------|
C#|-----------------------------------------------------------------|
G#|-----------------------------------------------------------------|
C#|-----------------------------------------------------------------|

Verse

d#|-------12-----12-----------12-----12---12-------9-|
A#|----10-----10-----10----10-----10------------10---|(let ring)
F#|-11-----11-----11----11-----11------11----11------|
C#|--------------------------------------------------|
G#|--------------------------------------------------|
C#|--------------------------------------------------|

d#|-------12-----12-----------12-----12---|
A#|----10-----10-----10----10-----10------|
F#|-11-----11-----11----11-----11------11-|
C#|---------------------------------------|
G#|---------------------------------------|
C#|---------------------------------------|

Then directly after:

d#|-----------------------------------------------------------------------------|
A#|-----------------------------------------------------------------------------|
F#|-----------------------------------------------------------------------------|
C#|-11---11---11---11---11---11---11---11---9---9---9---9---11---11---11---11---|
G#|---12---12---12---12---11---11---11---11--11--11--11--11---12---12---12---12-|
C#|-----------------------------------------------------------------------------|
     x x  x x  x x  x x  x x  x x  x x  x x x x x x x x x x x x  x x  x x  x x

d#|----------------------------------------------------------------------|
A#|----------------------------------------------------------------------|
F#|-14-14-14-------------------------------------------------------------|
C#|-11-11-11--11---11---11---11---11---11---11---11---9---9---9---9---7--|
G#|-12-12-12----12---12---12---12---11---11---11---11--11--11--11--11--9-|
C#|----------------------------------------------------------------------|
               x x  x x  x x  x x  x x  x x  x x  x x x x x x x x x x xx 

Chorus

d#|-----------------------------------------------------------------------|
A#|-----------------------------------------------------------------------|
F#|-11-11-11\6-6-6/9-9-9-9-9-9-9-9-9-9/11-11-11\6-6-6\4-4-4-4-4-4-4-4-4-4-|
C#|-x--x--x--x-x-x-x-x-x-x-x-x-x-x-x-x-x--x--x--x-x-x-x-x-x-x-x-x-x-x-x-x-|(x2)
G#|-9--9--9-\4-4-4/7-7-7-7-7-7-7-7-7-7/9--9--9-\4-4-4\2-2-2-2-2-2-2-2-2-2-|
C#|-----------------------------------------------------------------------|

d#|-------9--------------7------------------9---------------7-|
A#|-----7--------7-10--7----7-10--7-------7---------7-10--7---|
F#|-7h9------7h9----------------------7h9-------7h9-----------|
C#|-----------------------------------------------------------|
G#|-----------------------------------------------------------|
C#|-----------------------------------------------------------|

Solo/Bridge

d#|----------------9--12--17--16-------------------9--12--17--16-|
A#|-9--10----------------------------9--10-----------------------|
F#|--------11--9----------------------------11--9----------------|
C#|--------------------------------------------------------------|
G#|--------------------------------------------------------------|
C#|--------------------------------------------------------------|
d#|----------------------------------------------------------------------------------|
A#|----------------------------------------------------------------------------------|
F#|-11--11---14---14-14-14\6--6--6/13\4--4-4----11--11---14-14-14-14\6--6--6/13\4--4-|
C#|-x---x----x----x--x--x--x--x--x-x--x--x-x----x---x----x--x--x--x--x--x--x-x--x--x-|
G#|-9---9----12---12-12-12\4--4--4/11\2--2-2----9---9----12-12-12-12\4--4--4/11\2--2-|
C#|----------------------------------------------------------------------------------|

e|-----------------------------------------------|
B|-----------------------------------------------|
G|-----------------------------------------------|
D|-11---11---11-12-14-14-------------------------|(x3)
A|---12---12-------------12-12-12-11-11-11-11-11-|
E|-----------------------------------------------|
   x x  x x  x  x  x  x  x  x  x  x  x  x  x  x

Fourth time, slightly different ending:

d#|--------------------------------------------|
A#|--------------------------------------------|
F#|-----------------------------------13-13-13-|
C#|-11---11---11-12-14-14-------------x--x--x--|
G#|---12---12-------------12-12-12-11-11-11-11-|
C#|--------------------------------------------|
   x x  x x  x  x  x  x  x  x  x  x  

(Clean)
d#|------------------------|
A#|------------------------|
F#|-11------------11-------|
C#|-----11/14---------11\9-|
G#|------------------------|
C#|------------------------|

Final Chorus

d#|-----------------------------------------------------------------------|
A#|-----------------------------------------------------------------------|
F#|-11-11-11\6-6-6/9-9-9-9-9-9-9-9-9-9/11-11-11\6-6-6\4-4-4-4-4-4-4-4-4-4-|
C#|-x--x--x--x-x-x-x-x-x-x-x-x-x-x-x-x-x--x--x--x-x-x-x-x-x-x-x-x-x-x-x-x-|(x4)
G#|-9--9--9-\4-4-4/7-7-7-7-7-7-7-7-7-7/9--9--9-\4-4-4\2-2-2-2-2-2-2-2-2-2-|
C#|-----------------------------------------------------------------------|

d#|-------9--------------7------------------9---------------7------|
A#|-----7--------7-10--7----7-10--7-------7---------7-10--7-----9^-|
F#|-7h9------7h9----------------------7h9-------7h9----------------|
C#|----------------------------------------------------------------|
G#|----------------------------------------------------------------|
C#|----------------------------------------------------------------|

d#|------------------9-10-9-12------------------------------------|
A#|-9-10-9-10-9----------------10----9-10-9-10-9------12--10--9\2-|(let ring)
F#|-------------11-9-----------------------------11-9-------------|
C#|---------------------------------------------------------------|
G#|---------------------------------------------------------------|
C#|---------------------------------------------------------------|


RHYTHM GUITAR

Intro

d#|-----------------------------------------------------|
A#|-----------------------------------------------------|
F#|-----6--6/7/9-------------------6--6-7-9--4-4-4------|
C#|-4-4-x--x-x-x--7-7-7-9--9---4-4-x--x-x-x--4-4-4-2--2-|
G#|-4-4-4--4/5/7--7-7-7-9--9---4-4-4--4/5/7--2-2-2-2--2-|
C#|-4-4-----------7-7-7-9--9---4-4-----------------2--2-|

d#|-------------------------------------------------------|
A#|-------------------------------------------------------|
F#|-----6--6/7/9-------------------6--6-7-9--4-4-4--------|
C#|-4-4-x--x-x-x--7-7-7-9--9---4-4-x--x-x-x--4-4-4-2--2-4-|
G#|-4-4-4--4/5/7--7-7-7-9--9---4-4-4--4/5/7--2-2-2-2--2-4-|(let ring)
C#|-4-4-----------7-7-7-9--9---4-4-----------------2--2-4-|



Verse

d#|-----------------------------------|
A#|-----------------------------------|
F#|-----------------------------------|
C#|-0-0-0-0-0-0-0-0-2-2-2-2-2-2-2-2-4-|
G#|-0-0-0-0-0-0-0-0-2-2-2-2-2-2-2-2-4-|
C#|-0-0-0-0-0-0-0-0-2-2-2-2-2-2-2-2-4-|

Then, after the small pause, harshly (just don’t destroy your strings:P)
pluck the three upper string (e, B and G),so you get this ‘tearing-like’ sound 
(don’t know all these guitarterms butyou should be able to figure it out yourself;))

d#|-0-----------------------------------|
A#|-0-----------------------------------|
F#|-0-----------------------------------|
C#|-----0-0-0-0-0-0-0-0-2-2-2-2-2-2-2-2-|
G#|-----0-0-0-0-0-0-0-0-2-2-2-2-2-2-2-2-|
C#|-----0-0-0-0-0-0-0-0-2-2-2-2-2-2-2-2-|

d#|-----------------------------------------------------------------|
A#|-----------------------------------------------------------------|
F#|-----------------------------------------------------------------|
C#|-4-4-4-4-4-4-4-4/7-7-7-7-7-7-7-7\2-2-2-2-2-2-2-2-0-0-0-0-0-0-0-0-|
G#|-4-4-4-4-4-4-4-4/7-7-7-7-7-7-7-7\2-2-2-2-2-2-2-2-0-0-0-0-0-0-0-0-|
C#|-4-4-4-4-4-4-4-4/7-7-7-7-7-7-7-7\2-2-2-2-2-2-2-2-0-0-0-0-0-0-0-0-|
    x x x x x x x x x x x x x x x x x x x x x x x x x x x x x x x x 


(Mind the missing ‘x’ at the end, don’t palm mute)
d#|---------------------------------------------------|
A#|---------------------------------------------------|
F#|---------------------------------------------------|
C#|-4-4-4-4-4-4-4-4/7-7-7-7-7-7-7-7\2-2-2-2-2-2-2-2-0-|
G#|-4-4-4-4-4-4-4-4/7-7-7-7-7-7-7-7\2-2-2-2-2-2-2-2-0-|
C#|-4-4-4-4-4-4-4-4/7-7-7-7-7-7-7-7\2-2-2-2-2-2-2-2-0-|
    x x x x x x x x x x x x x x x x x x x x x x x x 

Chorus

d#|-----------------------------------------------------------------|
A#|-----------------------------------------------------------------|
F#|-----------------------------------------------------------------|
C#|-4-4-4-4-4-4-4-4-0-0-0-0-0-0-0-0-7-7-7-7-7-7-7-7-9-9-9-9-9-9-9-9-|
G#|-4-4-4-4-4-4-4-4-0-0-0-0-0-0-0-0-7-7-7-7-7-7-7-7-9-9-9-9-9-9-9-9-|
C#|-4-4-4-4-4-4-4-4-0-0-0-0-0-0-0-0-7-7-7-7-7-7-7-7-9-9-9-9-9-9-9-9-|

d#|-----------------------------------------------------------------|
A#|-----------------------------------------------------------------|
F#|-----------------------------------------------------------------|
C#|-4-4-4-4-4-4-4-4-0-0-0-0-0-0-0-0-7-7-7-7-7-7-7-7-2-2-2-2-2-2-2-2-|
G#|-4-4-4-4-4-4-4-4-0-0-0-0-0-0-0-0-7-7-7-7-7-7-7-7-2-2-2-2-2-2-2-2-|
C#|-4-4-4-4-4-4-4-4-0-0-0-0-0-0-0-0-7-7-7-7-7-7-7-7-2-2-2-2-2-2-2-2-|

d#|---9------9------4-----7-----9------9------4---------|
A#|---10-----10-----5-----9-----10-----10-----5---------|
F#|---11-----11-----6-----9-----11-----11-----6------6^-|
C#|---11-----11-----6-----9-----11-----11-----6---2-----|
G#|-9------9------4-----7-----9------9------4-----2-----|
C#|-9------9------4-----7-----9------9------4-----2-----|

d#|-------------------------------------------------------|
A#|-------------------------------------------------------|
F#|-----6--6/7/9-------------------6--6-7-9--4-4-4--------|
C#|-4-4-x--x-x-x--7-7-7-9--9---4-4-x--x-x-x--4-4-4-2--2-4-|
G#|-4-4-4--4/5/7--7-7-7-9--9---4-4-4--4/5/7--2-2-2-2--2-4-|(let ring)
C#|-4-4-----------7-7-7-9--9---4-4-----------------2--2-4-|

Verse

d#|----------------------------------------------------------------------|
A#|----------------------------------------------------------------------|
F#|----------------------------------------------------------------------|
C#|-0-0-0-0-0-0-0-0-2-2-2-2-2-2-2-2-4----0-0-0-0-0-0-0-0-2-2-2-2-2-2-2-2-|
G#|-0-0-0-0-0-0-0-0-2-2-2-2-2-2-2-2-4----0-0-0-0-0-0-0-0-2-2-2-2-2-2-2-2-|
C#|-0-0-0-0-0-0-0-0-2-2-2-2-2-2-2-2-4----0-0-0-0-0-0-0-0-2-2-2-2-2-2-2-2-|

d#|-----------------------------------------------------------------|
A#|-----------------------------------------------------------------|
F#|-----------------------------------------------------------------|
C#|-4-4-4-4-4-4-4-4/7-7-7-7-7-7-7-7\2-2-2-2-2-2-2-2-0-0-0-0-0-0-0-0-|
G#|-4-4-4-4-4-4-4-4/7-7-7-7-7-7-7-7\2-2-2-2-2-2-2-2-0-0-0-0-0-0-0-0-|
C#|-4-4-4-4-4-4-4-4/7-7-7-7-7-7-7-7\2-2-2-2-2-2-2-2-0-0-0-0-0-0-0-0-|
    x x x x x x x x x x x x x x x x x x x x x x x x x x x x x x x x 


(Mind the missing ‘x’ at the end, don’t palm mute)
d#|---------------------------------------------------|
A#|---------------------------------------------------|
F#|---------------------------------------------------|
C#|-4-4-4-4-4-4-4-4/7-7-7-7-7-7-7-7\2-2-2-2-2-2-2-2-0-|
G#|-4-4-4-4-4-4-4-4/7-7-7-7-7-7-7-7\2-2-2-2-2-2-2-2-0-|
C#|-4-4-4-4-4-4-4-4/7-7-7-7-7-7-7-7\2-2-2-2-2-2-2-2-0-|
    x x x x x x x x x x x x x x x x x x x x x x x x 

Chorus

d#|-----------------------------------------------------------------|
A#|-----------------------------------------------------------------|
F#|-----------------------------------------------------------------|
C#|-4-4-4-4-4-4-4-4-0-0-0-0-0-0-0-0-7-7-7-7-7-7-7-7-9-9-9-9-9-9-9-9-|
G#|-4-4-4-4-4-4-4-4-0-0-0-0-0-0-0-0-7-7-7-7-7-7-7-7-9-9-9-9-9-9-9-9-|
C#|-4-4-4-4-4-4-4-4-0-0-0-0-0-0-0-0-7-7-7-7-7-7-7-7-9-9-9-9-9-9-9-9-|

d#|-----------------------------------------------------------------|
A#|-----------------------------------------------------------------|
F#|-----------------------------------------------------------------|
C#|-4-4-4-4-4-4-4-4-0-0-0-0-0-0-0-0-7-7-7-7-7-7-7-7-2-2-2-2-2-2-2-2-|
G#|-4-4-4-4-4-4-4-4-0-0-0-0-0-0-0-0-7-7-7-7-7-7-7-7-2-2-2-2-2-2-2-2-|
C#|-4-4-4-4-4-4-4-4-0-0-0-0-0-0-0-0-7-7-7-7-7-7-7-7-2-2-2-2-2-2-2-2-|

d#|---9------9------4-----7-----9------9------4-----|
A#|---10-----10-----5-----9-----10-----10-----5-----|
F#|---11-----11-----6-----9-----11-----11-----6-----|
C#|---11-----11-----6-----9-----11-----11-----6---2-|
G#|-9------9------4-----7-----9------9------4-----2-|
C#|-9------9------4-----7-----9------9------4-----2-|

Solo/Bridge

d#|--------------------------------------------------------------------------------|
A#|--------------------------------------------------------------------------------|
F#|--------------------------------------------------------------------------------|
C#|-4--4--4--0--0--0--7--7--7--2--2--2--9--9--9--0--0--0--7--7--7--2-2-2-2-2-2-2-2-|
G#|-4--4--4--0--0--0--7--7--7--2--2--2--9--9--9--0--0--0--7--7--7--2-2-2-2-2-2-2-2-|
C#|-4--4--4--0--0--0--7--7--7--2--2--2--9--9--9--0--0--0--7--7--7--2-2-2-2-2-2-2-2-|

d#|-------X-X-X-X-X-X-----------------------------|
A#|-------X-X-X-X-X-X-----------------------------|
F#|-------X-X-X-X-X-X-----------------------------|
C#|-9--9--X-X-X-X-X-X-0--0--0-/-7--7--7-\-2--2--2-|
G#|-9--9--X-X-X-X-X-X-0--0--0-/-7--7--7-\-2--2--2-|
C#|-9--9--X-X-X-X-X-X-0--0--0-/-7--7--7-\-2--2--2-|

d#|-------X-X-X-X-X-X-X-----------------------------|
A#|-------X-X-X-X-X-X-X-----------------------------|
F#|-------X-X-X-X-X-X-X-----------------------------|
C#|-9--9--X-X-X-X-X-X-X-0-0-0-0-/-7--7--7-\-2--2--2-|
G#|-9--9--X-X-X-X-X-X-X-0-0-0-0-/-7--7--7-\-2--2--2-|
C#|-9--9--X-X-X-X-X-X-X-0-0-0-0-/-7--7--7-\-2--2--2-|

d#|-----------------------------------------------------------------|
A#|-----------------------------------------------------------------|
F#|-----------------------------------------------------------------|
C#|-4-4-4-4-4-4-4-4-7-7-7-9-9-9-9-9-4-4-4-4-4-4-4-4-7-7-7-6-6-6-6-6-|
G#|-4-4-4-4-4-4-4-4-7-7-7-9-9-9-9-9-4-4-4-4-4-4-4-4-7-7-7-6-6-6-6-6-|
C#|-4-4-4-4-4-4-4-4-7-7-7-9-9-9-9-9-4-4-4-4-4-4-4-4-7-7-7-6-6-6-6-6-|
    x x x x x x x x x x x x x x x x x x x x x x x x x x x x x x x x

d#|---------------------------------------------------------|
A#|---------------------------------------------------------|
F#|---------------------------------------------------------|
C#|-4-4-4-4-4-4-4-4-7-7-7-9-9-9-9-9-4-4-4-4-4-4-4-4-7-7-7-6-|
G#|-4-4-4-4-4-4-4-4-7-7-7-9-9-9-9-9-4-4-4-4-4-4-4-4-7-7-7-6-|
C#|-4-4-4-4-4-4-4-4-7-7-7-9-9-9-9-9-4-4-4-4-4-4-4-4-7-7-7-6-|
    x x x x x x x x x x x x x x x x x x x x x x x x x x x x 

(Clean)
d#|-5---5---5---5-|
A#|-5---5---5---5-|
F#|-6---6---6---6-|
C#|-7---7---7---7-|
G#|-7---7---7---7-|
C#|---------------|

Final Chorus

d#|-----------------------------------------------------------------|
A#|-----------------------------------------------------------------|
F#|-----------------------------------------------------------------|
C#|-4-4-4-4-4-4-4-4-0-0-0-0-0-0-0-0-7-7-7-7-7-7-7-7-9-9-9-9-9-9-9-9-|
G#|-4-4-4-4-4-4-4-4-0-0-0-0-0-0-0-0-7-7-7-7-7-7-7-7-9-9-9-9-9-9-9-9-|\
C#|-4-4-4-4-4-4-4-4-0-0-0-0-0-0-0-0-7-7-7-7-7-7-7-7-9-9-9-9-9-9-9-9-| \
                                                                      (x2)
d#|-----------------------------------------------------------------| /
A#|-----------------------------------------------------------------|/
F#|-----------------------------------------------------------------|
C#|-4-4-4-4-4-4-4-4-0-0-0-0-0-0-0-0-7-7-7-7-7-7-7-7-2-2-2-2-2-2-2-2-|
G#|-4-4-4-4-4-4-4-4-0-0-0-0-0-0-0-0-7-7-7-7-7-7-7-7-2-2-2-2-2-2-2-2-|
C#|-4-4-4-4-4-4-4-4-0-0-0-0-0-0-0-0-7-7-7-7-7-7-7-7-2-2-2-2-2-2-2-2-|

d#|---9------9------4-----7-----9------9------4---------|
A#|---10-----10-----5-----9-----10-----10-----5---------|
F#|---11-----11-----6-----9-----11-----11-----6------6^-|
C#|---11-----11-----6-----9-----11-----11-----6---2-----|
G#|-9------9------4-----7-----9------9------4-----2-----|
C#|-9------9------4-----7-----9------9------4-----2-----|

d#|---------------------------------------------------4-|
A#|---------------------------------------------------5-|
F#|-----6--6/7/9-------------------6--6-7-9--4--------6-|
C#|-4-4-x--x-x-x--7-7-7-9--9---4-4-x--x-x-x--4--2--2--4-|(let ring)
G#|-4-4-4--4/5/7--7-7-7-9--9---4-4-4--4/5/7--2--2--2--4-|
C#|-4-4-----------7-7-7-9--9---4-4--------------2--2--4-|


Hope this was helpful!
RATE AND COMMENT PLEASE!

| /  slide up
| \  slide down
| h  hammer-on
| x  PalmMute note
| X  Mute note (while strumming)
===============================================================================

Suggest correction
comments
print report bad tab
14 comments total. Showing first comments.
0 reply
JulieM2535 59 wrote on November 1 2009, 01:12 pm

Drop C#? howdo u tune it to that?(Im new in Guitars) i tried it in standard and it sounded quite fine. please let me know :)

0 reply
JulieM2535 59 wrote on November 1 2009, 01:13 pm

Great Tab by the way.

+3 reply
lostinstereo 10 wrote on December 9 2009, 06:08 pm

Fret the 2nd string at the 4th fret, tune the 1 string down until the 2 strings match in tone.
Fret the 3rd string at the 3rd fret, and tune the 2nd string down until those 2 strings match in tone.
Fret the 4th string at the 4th fret, and tune the 3rd string down until those 2 strings match in tone.
Fret the 5th string at the 4th fret, and tune the 4th string down until those 2 strings match in tone.
Fret the 6th string at the 4th fret, and tune the 4th string down until those 2 strings match in tone.

Now, in order to tune the 6th string down to C# you will need to fret it at the 7th fret, and tune the 6th string down until its tone matches the tone of the 5th string.

from: http://www.christianguitar.org/forums/t136827/

guest
You may want to rate the tab now too:
select rating
Wanna post a correction for this tab? Suggest correction