Oops, an error
Loading. Please wait.

Careful Tab

version 4
version 4

Interactive

4,375 views 6 this week
1 commentread comment
1 2 3 4 5
1 last vote to show rating
add to favorites
launch autoscroll
font size
0
reset
how to read this tab
guitar tuner
Autoscroll
slow
fast
+/-
esc
set tempo
stop
Help us to improve Ultimate-Guitar.com Take our survey!
×
Author
Difficulty
Tuning
Tabbers playing skills
intermediate
C# G# C# F# A# D#
intermediate ++
Artist: Paramore

Song: Careful (Instrumental)

Tuning: Drop C#



   -Intro-                                                                     
                                                                     
eb|-----------------------------------17---------------------------------|     |-----|
Bb|-----------------------14h15p14h17------------------------------------|     |-----|
Gb|-13h14p13h14---------------------------13h14p13h14--------------------| 2x  |-----|
Db|-------------11h12h14------------------------------11h12h14-----------|     |-----|
Ab|-------------------------------------------------------------14-12-11-|     |-12~-|
Db|----------------------------------------------------------------------|     |-----|




   -Verse-

eb|-----------------------------------------------------------------------------------------------|
Bb|-----------------------------------------------------------------------------------------------|
Gb|7-7-7-7-7-7-7-7-9-9-9-9-9-9-9-9----------------------------------------------------------------|
Db|7-7-7-7-7-7-7-7-9-9-9-9-9-9-9-9-4~-------------------------------------------------------------|
Ab|5-5-5-5-5-5-5-5-7-7-7-7-7-7-7-7-4~-------------------------------------------------------------|
Db|--------------------------------4~-------------------------------------------------------------|



eb|-----------------------------------------------------------------------------------------------|
Bb|-----------------------------------------------------------------------------------------------|
Gb|7-7-7-7-7-7-7-7-9-9-9-9-9-9-9-9----------------------------------------------------------------|
Db|7-7-7-7-7-7-7-7-9-9-9-9-9-9-9-9----------------------------------------------------------------|
Ab|5-5-5-5-5-5-5-5-7-7-7-7-7-7-7-7-4-4-4-4-4-4-4-4-7-7-7-7-7-7-7-7-2-2-2-2-2-2-2-2-0-0-0-0-0-0-0-0|
Db|--------------------------------4-4-4-4-4-4-4-4-7-7-7-7-7-7-7-7-2-2-2-2-2-2-2-2-0-0-0-0-0-0-0-0|
                                    
                                  * * * * * * * * * * * * * * * * * * * * * * * * * * * * * * * *  

eb|---------------------------------------------------x-------------|
Bb|---------------------------------------------------x-------------|
Gb|---------------------------------------------------x-------------|
Db|-------------------------------------------------0-x-------------|
Ab|-4-4-4-4-4-4-4-4-7-7-7-7-7-7-7-7-2-2-2-2-2-2-2-2-0-x-------------|
Db|-4-4-4-4-4-4-4-4-7-7-7-7-7-7-7-7-2-2-2-2-2-2-2-2-0-x-------------|
                                    
    * * * * * * * * * * * * * * * * * * * * * * * *  




   -Chorus-

eb|-------------------------------------------------------------------|
Bb|-------------------------------------------------------------------|
Gb|-111111\6-6-6/9-9-9-9-9-9-9-9-9-9-111111\6-6-6\4-4-4-4-4-4-4-4-4-4-| 2x
Db|-x-x-x-\x-x-x/x-x-x-x-x-x-x-x-x-x-x-x-x-\x-x-x\x-x-x-x-x-x-x-x-x-x-|
Ab|-9-9-9-\4-4-4/7-7-7-7-7-7-7-7-7-7-9-9-9-\4-4-4\2-2-2-2-2-2-2-2-2-2-|
Db|-------------------------------------------------------------------|


   -Chorus2-

eb|-------9~--------5------7------5~---|-------9~--------5------7~----|
Bb|---------------------7------7-------|---------------------7--------|
Gb|-7h9p7-----7h9p7--------------------|-7h9p7-----7h9p7--------------|
Db|------------------------------------|------------------------------|
Ab|------------------------------------|------------------------------|
Db|------------------------------------|------------------------------|




   -Intro2-

eb|-----------------------------------17-------------------------------------|
Bb|-----------------------14h15p14h17----------------------------------------|
Gb|-13h14p13h14---------------------------13h14p13h14------------------------|
Db|-------------11h12h14------------------------------11h12h14---------------|
Ab|-------------------------------------------------------------14-12-11-12~-|
Db|--------------------------------------------------------------------------|




   -Verse-



   -Chorus-




   -Bridge-

eb|---------------------17-16~-|--------------------17-16~~~-|
Bb|--------------14-17---------|--------------14-17----------|
Gb|-13-14----------------------|-13-14-----------------------|
Db|-------16-14~---------------|-------16-14~----------------|
Ab|----------------------------|-----------------------------|
Db|----------------------------|-----------------------------|



eb|---------------------------|-----------------------------|
Bb|---------------------------|-----------------------------|
Gb|-1111--141414\6-6-6/13\4-4-|-1111--14141414\6-6-6/13\4-4-|
Db|-x-x---x-x-x-\x-x-x/x-\x-x-|-x-x---x-x-x-x-\x-x-x/x-\x-x-|
Ab|-9-9---121212\4-4-4/11\2-2-|-9-9---12121212\4-4-4/11\2-2-|
Db|---------------------------|-----------------------------|



eb|------------------------------------------------|-----------------------------------------------|
Bb|------------------------------------------------|-----------------------------------------------|
Gb|------------------------------------------------|-----------------------------------------------|
Db|11-11-11-11-11-12-14-14-------------------------|11-11-11-11-11-12-14-14------------------------|
Ab|------------------------12-12-12-14-14-14-14-14-|------------------------12-12-12-11-11-11-11-11|
Db|------------------------------------------------|-----------------------------------------------|

  *  *  *  *  *  *  *  *  *  *  *  *  *  *  *  *    *  *  *  *  *  *  *  *  *  *  *  *  *  *  *  *


eb|------------------------------------------------|-----------------------------------------------|
Bb|------------------------------------------------|-----------------------------------------------|
Gb|------------------------------------------------|-----------------------------------------------|
Db|11-11-11-11-11-12-14-14-------------------------|11-11-11-11-11-12-14-14------------------------|
Ab|------------------------12-12-12-14-14-14-14-14|-------------------------12-12-12-11-11-11-11-11|
Db|-----------------------------------------------|------------------------------------------------|

    *  *  *  *  *  *  *  *  *  *  *  *  *  *  *  *    *  *  *  *  *  *  *  *  *  *  *  *  *  



eb|-----------------------|
Bb|-----------------------|
Gb|-----------------------|
Db|-4----------4----------|
Ab|----4-/7~------4----2~-|
Db|-----------------------|




  Chorus  4x



  Chorus2




   -Outro-

eb|-----------------------------------17------------------------------------| 
Bb|-----------------------14h15p14h17---------------------------------------|  
Gb|-13h14p13h14---------------------------13h14p13h14-----------------------|  
Db|-------------11h12h14------------------------------11h12h14--------------|     
Ab|-------------------------------------------------------------14-12-11-4~-|     
Db|-------------------------------------------------------------------------|     
Suggest correction
Give kudos to tab author, rate the tab!
1 2 3 4 5
comments
print report bad tab
1 comment total.
0 reply
N04Hz_Ark 472 Dec 28, 2015 10:37 PM

With "Chorus 2", the 5 on the high E string can also be played on the B string at 10th fret. Makes it easier so you don't need to change your whole shape.

guest
You may want to rate the tab now too:
select rating
Wanna post a correction for this tab? Suggest correction