Oops, an error
Loading. Please wait.

Careful Tab

version 5
version 5

Interactive

14,333 views 9 this week
3 commentsread comments
1 2 3 4 5
1 last vote to show rating
add to favorites
launch autoscroll
font size
0
reset
how to read this tab
guitar tuner
Autoscroll
slow
fast
+/-
esc
set tempo
stop
Help us to improve Ultimate-Guitar.com Take our survey!
×
Author
Difficulty
novice
Artist: Paramore
Song: Careful
Album: Brand New Eyes
Tuning: Standard E A D G B E 

INTRO
|------------------------11-12-11-14-----------------------------------|
|---11-12-11-12-11-------------------12---11-12-11-12-11-------14-12-11|
|-o----------------13-11---------------------------------13-11---------|> play
|-o--------------------------------------------------------------------|> 2x
|----------------------------------------------------------------------|
|----------------------------------------------------------------------|

VERSE
|-------14-------14-------------14-------14----14-------11-|
|----12-------12-------12----12-------12-------------12----|
|-13-------13-------13----13-------13-------13----13-------|
|----------------------------------------------------------|
|----------------------------------------------------------|
|----------------------------------------------------------|

VERSE
continued
|-2-------14-------14-------14-------------14-------14----|
|-2----12-------12-------12-------12----12-------12-------|
|-2-13-------13-------13-------13----13-------13-------13-|
|---------------------------------------------------------|
|---------------------------------------------------------|
|---------------------------------------------------------|

VERSE 
continued
|------------------------------------------------------------------|
|------------------------------------------------------------------|
|------------------------------------------------------------------|
|-13----(play)-13----(play)-11----(play)-13----(play)-13----(play)-|
|----14-(4x  )----14-(4x  )----13-(4x  )----14-(8x  )----13-(4x  )-|
|------------------------------------------------------------------|

VERSE 
continued
|-------------------|
|-------------------|
|-------------------|
|-11----(play)-9----|
|----13-(4x  )---13-|
|-------------------|

CHORUS SECTION 1
|--------------------------------------------|
|--------------------------------------------|
|-o-13(3x)-8(3x)-11(8x)-13(3x)-8(3x)-6(10x)-o|> play 
|-o-----------------------------------------o|> 2x
|---11-----6------9-----11-----6-----4-------|
|--------------------------------------------|

CHORUS SECTION 2
|--------11-------------9---------------11-------------9-----|
|------9---------9-12-9---9-12-9------9---------9-12-9---11^-|
|-9-11------9-11-----------------9-11------9-11--------------|
|------------------------------------------------------------|
|------------------------------------------------------------|
|------------------------------------------------------------|

CHORUS SECTION 2
continued
|----------------------11-12-11-14-------------------------------------|
|-11-12-11-12-11-------------------12-11-12-11-12-11-------14-12-11-12-|
|----------------13-11-------------------------------13-11-------------|
|----------------------------------------------------------------------|
|----------------------------------------------------------------------|
|----------------------------------------------------------------------|

repeat VERSE

VERSE ENDING
|-------------------------------------------------------|
|-------------------------------------------------------|
|-16-16-16----------------------------------------------|
|-13-13-13--13----(play)-13----(play)-11----(play)-9----|
|-14-14-14-----14-(4x  )----13-(4x  )----13-(4x  )---11-|
|-------------------------------------------------------|

repeat CHORUS

SOLO/BRIDGE SECTION 1
|-------------11-14-19-18-------------11-14-19-18-|
|-11-12-------------------11-12-------------------|
|-------13-11-------------------13-11-------------|
|-------------------------------------------------|
|-------------------------------------------------|
|-------------------------------------------------|

SOLO/BRIDGE SECTION 2
|-----------------------------------|         |-------|
|-----------------------------------|         |-------|
|-o-13-13-16-16-16-8-8-8-15-6-6-6-o-|> play   |-13-13-|
|-o-------------------------------o-|> 2x     |-------|
|---11-11-14-14-14-6-6-6-13-4-4-4---|         |-11-11-|
|-----------------------------------|         |-------|

SOLO/BRIDGE SECTION 3
|---------------------------------------------------|
|---------------------------------------------------|
|-o-----------------------------------------------o-|> play
|-o-13----13----13-14-16-16-----------------------o-|> 3x
|------14----14-------------14-14-14-13-13-13-13-13-|
|---------------------------------------------------|

SOLO/BRIDGE SECTION 4
|----------------------------------------------------------------|
|----------------------------------------------------------------|
|----------------------------------15-15-15-15-13-------13-------|
|-13----13----13-14-16-16-------------------------13/16----13\11-|
|----14----14-------------14-14-14-13-13-13-13-------------------|
|----------------------------------------------------------------|

repeat CHORUS SECTION 1 (4x)
       CHORUS SECTION 2

ENDING
|----------------------11-12-11-14------------------------------------|
|-11-12-11-12-11-------------------12-11-12-11-12-11-------14-12-11\4-|
|----------------13-11-------------------------------13-11------------|
|---------------------------------------------------------------------|
|---------------------------------------------------------------------|
|---------------------------------------------------------------------|

ORDER:
INTRO
VERSE
CHORUS
VERSE
CHORUS
SOLO/BRIDGE
CHORUS SECTION 1 (4x)
ENDING

THERE YOU GO! HOPE YOU ENJOY, GREAT SONG by PARAMORE. PEACE
Suggest correction
Give kudos to tab author, rate the tab!
1 2 3 4 5
comments
print report bad tab
3 comments total.
0 reply
rocknrolldude43 41 Nov 11, 2009 09:21 PM

Wrong tuning, it's supposed to be Drop C#...

0 reply
rocknrolldude43 41 Nov 17, 2009 02:09 PM

Disregard my last comment, my eyes must have fooled me. I see now that the tuning is correct, but everything should be moved a fret south.

0 reply
HH_Emo_666 242 Jan 18, 2011 01:24 PM

this would sound perfect if it was in drop C

guest
You may want to rate the tab now too:
select rating
Wanna post a correction for this tab? Suggest correction