Oops, an error
Loading. Please wait.

Circle Bass Tab

2,759 views 3 this week
no commentswrite comment
1 2 3 4 5
please rate
add to favorites
launch autoscroll
font size
0
reset
guitar tuner
Autoscroll
slow
fast
+/-
esc
set tempo
stop
Help us to improve Ultimate-Guitar.com Take our survey!
×
Author
Tuning
C# G# C# F# A# D#
++++++++++++++++++++
| Paramore- Circle |
++++++++++++++++++++

Tuning: Drop C# ??

I dunno, but at the bridge and during the whole song
the bass reaches some very low notes,
your bass should be tuned like this:

G |-----------------|
D |-----------------|
A |-----------------|
C#|-----------------|

Verse
"Take this time...To realize..."
1.
|-------------------------------------------------------------|
|-------------------------------------------------------------|
|-44-33----------44-33----------44-33----------44-33----------|
|-------66-77----------66-77----------66-77----------66-77----|

"That you always shut your eyes..."
2.
|-------------5/6-5----------------------------------------------------|
|-------------------6-5--6-----5---------------------------------------|
|-44-33-------------------------------------44-33----------44-33-------|
|-------66-77--------------6-7---6-76-77----------66-77----------66-77-|

Pre-Chorus
"And I think that its time..."
3.
|-------------------------------------------------------------------------------|
|-------------------------------------------------------------------------------|
|-------------------------------------------------------------------------------|
|-4444-6666-7777-6-2~--4444-6666-7777-6-2~--4444-6666-7777-6-2~--4444-6666-7777-|

Chorus
"This circle never ends..."
4.
|------------------------------------------------------------------|
|------------------------------------------------------------------|
|-44-444-444-----44-444------------44-444-444-----44-444-----------|--x2
|------------4~---------4-6-7-6-2-------------4~---------4-6-7~----|

Outro
5.
|---------------------|
|---------------------|
|---------------------|
|-2~--------2~--------|

Verse
"Take this time...To realize..."
6.
|-------------------------------------------------------------|
|-------------------------------------------------------------|
|-44-33----------44-33----------44-33----------44-33----------|
|-------66-77----------66-77----------66-77----------66-77----|

"That you always shut your eyes..."
7.
|-------------5/6-5----------------------------------------------------|
|-------------------6-5--6-----5---------------------------------------|
|-44-33-------------------------------------44-33----------44-33-------|
|-------66-77--------------6-7---6-76-77----------66-77----------66-77-|

Pre-Chorus
"And I think that its time..."
8.
|-------------------------------------------------------------------------------|
|-------------------------------------------------------------------------------|
|-------------------------------------------------------------------------------|
|-4444-6666-7777-6-2~--4444-6666-7777-6-2~--4444-6666-7777-6-2~--4444-6666-7777-|

Chorus
"This circle'll never end..."
9.
|------------------------------------------------------------------|
|------------------------------------------------------------------|
|-44-444-444-----44-444------------44-444-444-----44-444-----------|--x2
|------------4~---------4-6-7-6-2-------------4~---------4-6-7~----|

Outro
10.
|---------------------|
|---------------------|
|---------------------|
|-2~--------2~--------|

Bridge
11.
|---------------------------------------------|
|---------------------------------------------|
|-6~--------4~--------------------------------|
|---------------------7\2~--------2-0~--------|

"And it never ends..."
12.
|--------------------------------------------------------------|
|--------------------------------------------------------------|
|--------------------------------------------------------------|
|-2-2--2--2-2--2-0-0--0--0-0--2-2--2--2-2--2-00000000-00000x---|

Chorus
"This circle never ends..."
13.
|------------------------------------------------------------------|
|------------------------------------------------------------------|
|-44-444-444-----44-444------------44-444-444-----44-444-----------|
|------------4~---------4-6-7-6-2-------------4~---------4-6-7~----|

14.
|------------------------------------------------------------------|
|------------------------------------------------------------------|
|-44-444-444-----44-444------------44-444-444-----44-444-----------|
|------------4~---------4-6-7-6-2-------------4~---------4-6-7-6-2-|

Outro
15.
|------------------------------------------------------------------------------------|
|------------------------------------------------------------------------------------|
|------------------------------------------------------------------------------------|
|-4444-6666-7777-6-2~--4444-6666-7777-6-2~--4444-6666-7777-6-2~--4444-6666-7777-6-2~-|

16.
|------------------------------------------------|
|------------------------------------------------|
|------------------------------------------------|
|-4~---------------------------------------------|

Lyrics:

Take this time to realize
That you always shut your eyes
In the midst of trial
And everything is always right
And I think that it's time
This battle must be won
But you pushed it aside
Pushed it aside
Pretend that it's gone

This circle never ends
And it's time you just face it, don't pretend
That it's over
This circle never ends
And it's time you just face it, don't pretend
That it's over

+++++++++++++++++++++++++++++++++
| RaiLeff                       |
| Underground__Dora@Hotmail.Com |
+++++++++++++++++++++++++++++++++
Suggest correction
Give kudos to tab author, rate the tab!
1 2 3 4 5
comments
print report bad tab
guest
You may want to rate the tab now too:
select rating
Please do not post tabs as comments. Select "correction" instead!