Oops, an error
Loading. Please wait.

Circle Tab

version 2
version 2

Whole song

1,541 views 1 this week
no commentswrite comment
1 2 3 4 5
x 5
add to favorites
launch autoscroll
font size
0
reset
how to read this tab
guitar tuner
Autoscroll
slow
fast
+/-
esc
set tempo
stop
Help us to improve Ultimate-Guitar.com Take our survey!
×
Author
Difficulty
Tuning
intermediate
D A D G B E
Song: Circle
Artist: Paramore
Album: All We Know is Falling
Tabber: franco_revilla
Tuning: Dropped D tuning

Intro

Guitar 1
e|---------------------------|
B|-13-----11-----6-----8-----|
G|--x(2x)--x(2x)-x(2x)-8(2x)-| 2x
D|-10------8-----3-----5-----|
A|---------------------------|
E|---------------------------|

Verse

Guitar 1
e|---------------------------|
B|-13-----11-----6-----8-----|
G|--x(2x)--x(2x)-x(2x)-8(2x)-| 8x
D|-10------8-----3-----5-----|
A|---------------------------|
E|---------------------------|

Guitar 2 
e|------6----15--------6----15-|  
B|----4------16------4------16-|
G|--5--------17----5--------17-|
D|-----------------------------|
A|-----------------------------|
E|-----------------------------|

e|--------18----------15----------18---------15----------18------------|
B|-----16----16-------16-------16----16------16-------16----(16)-------|
G|--17----------17----17----17----------17---17----17----------(17)----|
D|---------------------------------------------------------------------|
A|---------------------------------------------------------------------|
E|---------------------------------------------------------------------|

Bridge

Guitar 1 
e|------------------------|
B|------------------------|
G|----------------8-8-----|2x
D|--3333-5555-8888-8-8----|
A|------------------------|
E|------------------------|
Pm  .... .... .... . .

e|-------------------------11-11-8-8-------------------------------------|
B|---------------------9-9-----------11-11---------------------9-9-9-9-9-|
G|-10-10-10-10-8-8-8-8---------------------10-10-10-10-8-8-8-8-----------|
D|-----------------------------------------------------------------------|
A|-----------------------------------------------------------------------|
E|-----------------------------------------------------------------------|

Guitar 2   
e|-------------------------|
B|-------------------------|
G|-------------------------|3x
D|-3333--5555--66666--111--|
A|-3333--5555--66666--111--|
E|-3333--5555--66666--111--|
Pm ....  ....  .....

e|--------------------|
B|--------------------|
G|-5555--7777--88888--|
D|-3333--5555--66666--|
A|-3333--5555--66666--|
E|-3333--5555--66666--|
 
Chorus

Guitar 1
e|---------------------------------------------8-9----8-----|\
B|-1313-131313-131313-13~--1313-131313--8h9h11-----11---9---| 
G|--x-x--x-x-x--x-x-x--x----x-x--x-x-x----------------------|  
D|-1010-101010-101010-10~--1010-101010----------------------|   \
A|----------------------------------------------------------|
E|----------------------------------------------------------|
                                                                  \2x
e|--------------------------------------15----------------|       /
B|-1313-131313-131313-13~--1313-131313------16------16----|
G|--x-x--x-x-x--x-x-x--x----x-x--x-x-x----------13--------|
D|-1010-101010-101010-10~--1010-101010--------------------|    /
A|--------------------------------------------------------|
E|--------------------------------------------------------|  /

Guitar 2 figure out the timing
e|-------------------------|
B|-------------------------|
G|--88-888-888-8~--88-888--| 2x
D|--66-666-666-6~--66-666--|
A|--66-666-666-6~--66-666--|
E|--66-666-666-6~--66-666--|

Pre-Verse

Guitar 1
e|--15--------------------------------|
B|------16-----16----16-----16----16--|
G|----------13----13----13-----13-----|2x
D|------------------------------------|
A|------------------------------------|
E|------------------------------------|

Guitar 2
e|---------------------------|
B|---------------------------|
G|--8~--888~------8~--888~---|
D|--8~--888~------8~--888~---|
A|--6~--668~------6~--666~---|
E|---------------------------|

Verse 2

Guitar 1
e|---------------------------|
B|-13-----11-----6-----8-----|
G|--x(2x)--x(2x)-x(2x)-8(2x)-| 8x
D|-10------8-----3-----5-----|
A|---------------------------|
E|---------------------------|

Guitar 2
e|-----6---------18---15----------18----------15----------18----------15---|
B|---4--------16------16-------16----16-------16-------16----16-------16---|
G|-5-------17---------17----17----------17----17----17----------17----17---|
D|-------------------------------------------------------------------------|
A|-------------------------------------------------------------------------|
E|-------------------------------------------------------------------------|


Repeat Chorus

Repeat Pre-Verse

Pre-Chorus

Guitar 1 figure out the timing
e|-15--------------15----------------------------------------------|
B|----16--------16----16-------------13--------------13------------|
G|-------17--17----------(17)-----------13--------13----13---------|2x
D|----------------------------xx(13)-------13--13----------(13)----|
A|-----------------------------------------------------------------|
E|-----------------------------------------------------------------|

Guitar 2
e|--------18----------------18--------|
B|-----16----------------16-----------|
G|--17----------------17--------------|
D|------------------------------------|
A|------------------------------------|
E|------------------------------------|

e|--------------------------------------------|
B|--------------------------------------------|
G|--8~------666~-------888~-------6666666-----|
D|--8~------666~-------888~-------6666666-----|
A|--6~------444~-------666~-------4444444-----|
E|--------------------------------------------|

Repeat Chorus

Repeat Bridge

e|------------------------|
B|------------------------|
G|----------------8-8-----|2x
D|--3333-5555-8888-8-8----|
A|------------------------|
E|------------------------|
Pm  .... .... .... . .

e|-------------------------11-11-8-8-------------------------------------|----| 
B|---------------------9-9-----------11-11---------------------9-9-9-9-9-|9p8~|
G|-10-10-10-10-8-8-8-8---------------------10-10-10-10-8-8-8-8-----------|----|
D|-----------------------------------------------------------------------|----|
A|-----------------------------------------------------------------------|----|
E|-----------------------------------------------------------------------|----|

Guitar 2   
e|-------------------------|
B|-------------------------|
G|-------------------------|3x
D|-3333--5555--66666--111--|
A|-3333--5555--66666--111--|
E|-3333--5555--66666--111--|
Pm ....  ....  .....

e|--------------------|
B|--------------------|
G|-5555--7777--88888--|
D|-3333--5555--66666--|
A|-3333--5555--66666--|
E|-3333--5555--66666--|

Guitar 3
e|--15--------------------------------|
B|------16-----16----16-----16----16--|
G|----------13----13----13-----13-----| just keep doing this until song ends
D|------------------------------------|
A|------------------------------------|
E|------------------------------------|

Legend:
. - Palm Mute
~ - let the note(s) ring
h - Hammer on
x - Dead note
p - Pull off
() - notes inside the parenthesis are optional :)

Enjoy!!:)
Suggest correction
comments
print report bad tab
guest
You may want to rate the tab now too:
select rating
Wanna post a correction for this tab? Suggest correction