Oops, an error
Loading. Please wait.

Conspiracy Chords

version 2
version 2

Whole song

Interactive

22,426 views 51 this week
1 commentread comment
1 2 3 4 5
excellent!
x 4
add to favorites
launch autoscroll
font size
0
reset
transpose
0
reset
simplify chords
- display chords -
guitar tuner
Tab Pro tools
  • play this tab
  • loop segment
  • change instrument
  • show fretboard
  • metronome
×
Best way to learn
"Conspiracy"
Autoscroll
slow
fast
+/-
esc
set tempo
stop
Difficulty
intermediate
(guitar 2)
E|-----8---5---5---8---5---5---5-|--------5---5-------5---5---5-|
B|---6---6---6---6---6---6---6---|--6-5-----6---6-5-----6---6---|   
G|-------------------------------|------------------------------|
D|-------------------------------|------------------------------|
A|-------------------------------|------------------------------|
E|-------------------------------|------------------------------|

E|-----8---5---5---8---5---5---5-|--------------|
B|---6---6---6---6---6---6---6---|-6----5----6--|
G|-------------------------------|--------------| <----|
D|-------------------------------|--------------|      |
A|-------------------------------|--------------|      |
E|-------------------------------|--------------|      |
                                                       | (play at the same
(guitar 1)                                             |   time)
E|-15(x3)--12(x3)----------------|--------------|      |
B|----------------10(x7)--11(x3)-|-11---10---13-|      |
G|-------------------------------|--------------| <----|
D|-------------------------------|--------------|      
A|-------------------------------|--------------|  
E|-------------------------------|--------------|

Bb9--C-F-Dm7

Verse 1
Bb9                Dm7
  Please speak softly, for they will hear us.

Bb9              Dm7
    And they'll find out why we don't trust them.

Bb9           Dm7
  Speak up, dear, because I can't hear you.

Bb9               Dm7
    I need to know why we don't trust them.


Chorus
Bb9                           C     F          Dm7
    Explain to me this conspiracy against me, yeah.

Bb9                           C     F    Dm7
    And tell me how I've lost my power, yeah.


Verse 2
Bb9                Dm7
    Where can I turn? 'Cause I need something more.

Bb9                  Dm7
    Surrounded by uncertainty, I'm so unsure.

Bb9            Dm7
    Tell me why I feel so alone.

Bb9                      Dm7
    'Cause I need to know to whom I owe.

(Chorus)


Bridge
Gm        Bb9               Dm7-Bb9
   I thought that we'd make it.

Gm               Bb9                      Dm7-Bb9
   Because you said that we'd make it through.

Gm                     Dm7                Dm7                 Bb9
   And when all security fails, will you be there to hep me through?


(Chorus)


(Play intro)
comments
print report bad tab
1 comment total.
0 reply
0hmikeyclifford wrote on August 30 2015, 09:03 am

In my opinion I think a regular Bb and Dm works perfectly. Other than that, perfect tab.

I want to post or [tab]
guest
You may want to rate the tab now too:
select rating
Please do not post tabs as comments. Select "correction" instead!