Oops, an error
Loading. Please wait.

Conspiracy Tab

version 2
version 2

Whole song

Interactive

6,539 views 3 this week
1 commentread comment
1 2 3 4 5
accurate
x 5
add to favorites
launch autoscroll
font size
0
reset
how to read this tab
guitar tuner
Autoscroll
slow
fast
+/-
esc
set tempo
stop
Help us to improve Ultimate-Guitar.com Take our survey!
×
Author
Difficulty
intermediate
e|----8-----8-------------0-----0------------|
B|-----10----10--10--10----10----10--10--10--|
G|--10----10---10--10---10----10---10--10--10|
D|-8-----8-------------0-----0---------------|
A|-------------------------------------------|
E|-------------------------------------------|

e|15-15-15-15-12-12-12-12----------------------------------|
B|-----------------------10-10-10-10-11-10-11-10-11-10-11--|
G|-------------------------------------------------------11|
D|---------------------------------------------------------|
A|---------------------------------------------------------|
E|---------------------------------------------------------|

e|xxxx--------------------------------------------------------------------|
B|xxxx101010101010101010101010101010101010101010-11-555555-x-5555555555555|
G|xxxx101010101010101010101010101010101010101010-11-555555-x-5555555555555|
D|xxxx8-8-8-8-8-8-8-8-8-8-8-8-8-8-8-8-8-8-8-8-8---9-333333-x-0000000000000|
A|xxxx8-8-8-8-8-8-8-8-8-8-8-8-8-8-8-8-8-8-8-8-8---9-333333-x-0000000000000|
E|xxxx8-8-8-8-8-8-8-8-8-8-8-8-8-8-8-8-8-8-8-8-8---9-333333-x-0000000000000|

VERSE
The whole verse is that chord, just palm muted at some parts

e|-|
B|5|
G|5|
D|3|
A|3|
E|3|


Chorus
e|--------------------------------------------------------------------|
B|101010101010101010101010101010101010101010-11-555555-x-5555555555555|
G|101010101010101010101010101010101010101010-11-555555-x-5555555555555|
D|8-8-8-8-8-8-8-8-8-8-8-8-8-8-8-8-8-8-8-8-8---9-333333-x-0000000000000|
A|8-8-8-8-8-8-8-8-8-8-8-8-8-8-8-8-8-8-8-8-8---9-333333-x-0000000000000|
E|8-8-8-8-8-8-8-8-8-8-8-8-8-8-8-8-8-8-8-8-8---9-333333-x-0000000000000|
Suggest correction
What's this?
You can suggest a correction to this tab. Community and Mods will review your correction and vote to approve or reject it.
comments
print report bad tab
1 comment total.
0 reply
Xb4mvluvrX 276 wrote on December 4 2007, 06:38 pm

ur very close
but its a bit off...
but its pretty good i'll give 4stars

guest
You may want to rate the tab now too:
select rating
Please do not post tabs as comments. Select "correction" instead!