Oops, an error
Loading. Please wait.

Conspiracy Tab

version 4
version 4

Whole song

Interactive

48,727 views 45 this week
5 commentsread comments
1 2 3 4 5
excellent!
x 29
add to favorites
launch autoscroll
font size
0
reset
how to read this tab
guitar tuner
Autoscroll
slow
fast
+/-
esc
set tempo
stop
Help us to improve Ultimate-Guitar.com Take our survey!
×
Author
rockett97 680
-------------------------------------------------------------------------------
                             CONSPIRACY - Paramore
-------------------------------------------------------------------------------
Tabbed by: rockett97
Email: rockett97@hotmail.com

Heyy guys, I decided to make this tab, because no one seemed to have done it right. 
I’m pretty much sure my tab’s the most accurate one on this whole
site, and I’d like you guys to comment and rate it! 
Maybe at first some parts might sound a bit off (for example the bridge), 
but this is really the way they play it;) 
Take a close listen and you’ll agree with me.

If any of you should have problems reading this tab 
you should listen very closely to the song and try to follow 
the notes. Then you’ll understand it. Paramore uses for example 
a lot of fast strumming patterns in this song,and because I don’t 
know how to tab those perfectly, I just tabbed the chords. 
For strumming patterns you should just listen very closely to the song, 
I guess!


Tuning: Drop D

Rhythm Guitar

Intro
(clean)
e|------8-------------8------------------------0-------------0-----------------|
B|--------10----10------10----10----10-----------10----10------10----10----10--|
G|---10------10----10------10----10-------10--------10----10------10----10-----|
D|-8------------------------------------0----0---------------------------------|
A|-----------------------------------------------------------------------------|
D|-----------------------------------------------------------------------------|

e|--------8-------------8-----------------------0------8---|
B|----------10----10------10----10----10----------10---10--|
G|---10--------10----10------10----10------10----------10--|
D|-8----8--------------------------------0----0--------8---|
A|---------------------------------------------------------|
D|---------------------------------------------------------|

(disorted)
e|-X-X-X-X-8-------8------8-----X-10--3-----0-------|
B|-X-X-X-X-10------8------10----X-12--5-----5-------|
G|-X-X-X-X-10(x10)-10(x5)-10(x4)X-12--5(x6)-5(x10)--|
D|-X-X-X-X-8-------10-----8-----X-10--3-----0-------|
A|-X-X-X-X-8-------8------8-----X-10--3-----0-------|
D|-X-X-X-X-8-------8------8-----X-10--3-----0-------|

(The values behind brackets -in the whole tab- are approximate values, 
as I wrote before; I don’t know how to tab the strumming patterns.
You should listen to the song for the exact values and strumming patterns.)

Verse

e|---------8--8---------8--8----------8--8---------8----8---|
B|---------10-10--------10-10---------10-10--------10---10--|
G|---------10-10--------10-10---------10-10--------10---10--|(x3)
D|-8-8-8-8-8--8--8-8-8--8--8--0-0-0-0-8--8--0-0-0--8----8---|
A|-8-8-8-8-------8-8-8--------0-0-0-0-------0-0-0-----------|
D|-8-8-8-8-------8-8-8--------0-0-0-0-------0-0-0-----------|
   x x x x       x x x        x x x x       x x x

e|---------8--8---------8--8----------8--8-----------------|
B|---------10-10--------10-10---------10-10----------------|
G|---------10-10--------10-10---------10-10----------------|
D|-8-8-8-8-8--8--8-8-8--8--8--0-0-0-0-8--8--0-0-0-0-0-0-0--|
A|-8-8-8-8-------8-8-8--------0-0-0-0-------0-0-0-0-0-0-0--|
D|-8-8-8-8-------8-8-8--------0-0-0-0-------0-0-0-0-0-0-0--|
   x x x x       x x x        x x x x       x x x x x x x

Chorus

e|--8-------8------8-----X-10--3-----0-------|
B|--10------8------10----X-12--5-----5-------|
G|--10(x10)-10(x5)-10(x4)X-12--5(x6)-5(x10)--| (x2)
D|--8-------10-----8-----X-10--3-----0-------|
A|--8-------8------8-----X-10--3-----0-------|
D|--8-------8------8-----X-10--3-----0-------|

Verse

e|---------8--8---------8--8----------8--8---------8----8---|
B|---------10-10--------10-10---------10-10--------10---10--|
G|---------10-10--------10-10---------10-10--------10---10--|(x3)
D|-8-8-8-8-8--8--8-8-8--8--8--0-0-0-0-8--8--0-0-0--8----8---|
A|-8-8-8-8-------8-8-8--------0-0-0-0-------0-0-0-----------|
D|-8-8-8-8-------8-8-8--------0-0-0-0-------0-0-0-----------|
   x x x x       x x x        x x x x       x x x

e|---------8--8---------8--8----------8--8----------8--8\---|
B|---------10-10--------10-10---------10-10---------10-10\--|
G|---------10-10--------10-10---------10-10---------10-10\--|
D|-8-8-8-8-8--8--8-8-8--8--8--0-0-0-0-8--8--0-0-0-0-8--8\---|
A|-8-8-8-8-------8-8-8--------0-0-0-0-------0-0-0-0---------|
D|-8-8-8-8-------8-8-8--------0-0-0-0-------0-0-0-0---------|
   x x x x       x x x        x x x x       x x x x

Chorus

e|--8-------8------8-----X-10--3-----0-------|
B|--10------8------10----X-12--5-----5-------|
G|--10(x10)-10(x5)-10(x4)X-12--5(x6)-5(x10)--| (x2)
D|--8-------10-----8-----X-10--3-----0-------|
A|--8-------8------8-----X-10--3-----0-------|
D|--8-------8------8-----X-10--3-----0-------|

Bridge

e|--------------8-------------8------------------|
B|--------------10(x10)-------10(x3)-------------|
G|--------------10------------10-----------------|
D|-5------8-----8-------0-----8---0------8-------|
A|-5(x16)-8(x6)---------0(x3)-----0(x10)-8(x16)--|
D|-5------8-------------0---------0------8-------|

e|------------------------------|
B|------------------------------|
G|------------------------------|
D|-5------8------0------8-------|
A|-5(x16)-8(x16)-0(x16)-8(x16)--|
D|-5------8------0------8-------|
   x      x      x      x

e|----------------------8--8----8---|
B|----------------------10-10---10--|
G|----------------------10-10---10--|
D|-5------8------0------8--8----8---|
A|-5(x16)-8(x16)-0(x16)-8--8----8---|
D|-5------8------0------8--8----8---|
   x      x      x      x

(note the x’s; palm muted sections!)

Chorus

e|--8-------8------8-----X-10--3-----0-------|
B|--10------8------10----X-12--5-----5-------|
G|--10(x10)-10(x5)-10(x4)X-12--5(x6)-5(x10)--| (x2)
D|--8-------10-----8-----X-10--3-----0-------|
A|--8-------8------8-----X-10--3-----0-------|
D|--8-------8------8-----X-10--3-----0-------|

Outro

e|------8-------------8------------------------0-------------0-----------------|
B|--------10----10------10----10----10-----------10----10------10----10----10--|
G|---10------10----10------10----10-------10--------10----10------10----10-----|
D|-8------------------------------------0----0---------------------------------|
A|-----------------------------------------------------------------------------|
D|-----------------------------------------------------------------------------|

e|--------8-------------8------------------8--8--8-------------|
B|----------10----10------10----10----10---10-10-10(let ring)--|
G|---10--------10----10------10----10------10-9--10------------|
D|-8----8----------------------------------8--8--8-------------|
A|-------------------------------------------------------------|
D|-------------------------------------------------------------|

Lead Guitar

Intro 
(comes in when rhythm guitar already started playing the first part of the intro)

(clean)
e|-15-15-15-12-12-12--------------------------------------8---|
B|-------------------10-10-10-10-10-10-10/11-11-11-11-10--10--|
G|--------------------------------------------------------10--|
D|--------------------------------------------------------8---|
A|------------------------------------------------------------|
D|------------------------------------------------------------|

(disorted)
e|-X-X-X-X-8-------8------8-----X-10--3------0----------------------------|
B|-X-X-X-X-10------8------10----X-12--5------5----------------------------|
G|-X-X-X-X-10(x10)-10(x5)-10(x4)X-12--5(x6)--5--14-14-14-14\9-9-9-9/10\5--|
D|-X-X-X-X-8-------10-----8-----X-10--3------0--x--x--x--x--x-x-x-x-x--x--|
A|-X-X-X-X-8-------8------8-----X-10--3------0--12-12-12-12\7-7-7-7/8-\3--|
D|-X-X-X-X-8-------8------8-----X-10--3------0----------------------------|

Verse

e|---------8--8---------8--8----------8--8---------8----8---|
B|---------10-10--------10-10---------10-10--------10---10--|
G|---------10-10--------10-10---------10-10--------10---10--|(x2)
D|-8-8-8-8-8--8--8-8-8--8--8--0-0-0-0-8--8--0-0-0--8----8---|
A|-8-8-8-8-------8-8-8--------0-0-0-0-------0-0-0-----------|
D|-8-8-8-8-------8-8-8--------0-0-0-0-------0-0-0-----------|
   x x x x       x x x        x x x x       x x x


e|-12-------------13-------------15-------------17-------------|
B|----13---(x5)------13----(x5)-----13----(x5)-----15----(x5)--|
G|-------10-------------10-------------10-------------14-------|
D|-------------------------------------------------------------|
A|-------------------------------------------------------------|
D|-------------------------------------------------------------|


Chorus

e|-8-------8------8-----X-10--3-----0----------------------------|
B -10------8------10----X-12--5-----5----------------------------|
G|-10(x10)-10(x5)-10(x4)X-12--5(x6)-5--14-14-14-14\9-9-9-9/10\5--|
D|-8-------10-----8-----X-10--3-----0--x--x--x--x--x-x-x-x-x--x--|
A|-8-------8------8-----X-10--3-----0--12-12-12-12\7-7-7-7/8-\3--|
D|-8-------8------8-----X-10--3-----0----------------------------|

e|-8-------8------8-----X-10--3-----0-----------------------------|
B -10------8------10----X-12--5-----5-----------------------------|
G|-10(x10)-10(x5)-10(x4)X-12--5(x6)-5--14-14-14-14\9-9-9-9/10\10--|
D|-8-------10-----8-----X-10--3-----0--x--x--x--x--x-x-x-x-x--x---|
A|-8-------8------8-----X-10--3-----0--12-12-12-12\7-7-7-7/8-\12--|
D|-8-------8------8-----X-10--3-----0-----------------------------|

Verse

e|-12-------------13-------------15-------------17-------------|
B|----13---(x5)------13----(x5)-----13----(x5)-----15----(x5)--|
G|-------10-------------10-------------10-------------14-------| (x2)
D|-------------------------------------------------------------|
A|-------------------------------------------------------------|
D|-------------------------------------------------------------|

Chorus

e|-8-------8------8-----X-10--3-----0----------------------------|
B -10------8------10----X-12--5-----5----------------------------|
G|-10(x10)-10(x5)-10(x4)X-12--5(x6)-5--14-14-14-14\9-9-9-9/10\5--|
D|-8-------10-----8-----X-10--3-----0--x--x--x--x--x-x-x-x-x--x--|
A|-8-------8------8-----X-10--3-----0--12-12-12-12\7-7-7-7/8-\3--|
D|-8-------8------8-----X-10--3-----0----------------------------|

e|-8-------8------8-----X-10--3-----0----------------------------|
B -10------8------10----X-12--5-----5----------------------------|
G|-10(x10)-10(x5)-10(x4)X-12--5(x6)-5--14-14-14-14\9-9-9-9/10\9--|
D|-8-------10-----8-----X-10--3-----0--x--x--x--x--x-x-x-x-x--x--|
A|-8-------8------8-----X-10--3-----0--12-12-12-12\7-7-7-7/8-\7--|
D|-8-------8------8-----X-10--3-----0----------------------------|

Bridge

e|-------------------------------------------------|
B|-------------------------------------------------|
G|-------------------------------------------------|
D|-8-----7------10-----8------7-----10------8------|
A|-8(x6)-7(x10)-10(x6)-8(x10)-7(x6)-10(x14)-8(x8)--|
D|-8-----7------10-----8------7-----10------8------|

e|-15-15-15-----------------------------------------|
B|----------17-17-17--------------------------------|
G|-------------------14-14-14-14-14-14-14h15p14-14--| (x2)
D|--------------------------------------------------|
A|--------------------------------------------------|
D|--------------------------------------------------|

e|-15-15-15------------------15-15-15---------------|
B|----------17-17-17------------------17-17---------|
G|-------------------14-14-14----------------14-14--|
D|--------------------------------------------------|
A|--------------------------------------------------|
D|--------------------------------------------------|


e|-17-17-17------------------17-17-17---------------|
B|----------15-15-15------------------15-15---------|
G|-------------------14-14-14----------------14-14--|
D|--------------------------------------------------|
A|--------------------------------------------------|
D|--------------------------------------------------|

e|-15-15-15------------------15-15-15---------------|
B|----------17-17-17------------------17-17---------|
G|-------------------14-14-14----------------14-14--| (x3)
D|--------------------------------------------------|
A|--------------------------------------------------|
D|--------------------------------------------------|

e|-17--------------------|
B|-----15----------------|
G|---------14-------14\--|
D|-----------------------|
A|-----------------------|
D|-----------------------|

Chorus

e|-8-------8------8-----X-10--3-----0----------------------------|
B -10------8------10----X-12--5-----5----------------------------|
G|-10(x10)-10(x5)-10(x4)X-12--5(x6)-5--14-14-14-14\9-9-9-9/10\5--|
D|-8-------10-----8-----X-10--3-----0--x--x--x--x--x-x-x-x-x--x--|
A|-8-------8------8-----X-10--3-----0--12-12-12-12\7-7-7-7/8-\3--|
D|-8-------8------8-----X-10--3-----0----------------------------|

e|-8-------8------8-----X-10--3-----0-------------------|
B -10------8------10----X-12--5-----5-------------------|
G|-10(x10)-10(x5)-10(x4)X-12--5(x6)-5--14-14-14-14\9-9--|
D|-8-------10-----8-----X-10--3-----0--x--x--x--x--x-x--|
A|-8-------8------8-----X-10--3-----0--12-12-12-12\7-7--|
D|-8-------8------8-----X-10--3-----0-------------------|

Outro

(clean)
e|-15-15-15-12-12-12--------------------------------------8-------------|
B|-------------------10-10-10-10-10-10-10/11-11-11-11-10--10(let ring)--|
G|--------------------------------------------------------10------------|
D|--------------------------------------------------------8-------------|
A|----------------------------------------------------------------------|
D|----------------------------------------------------------------------|


(‘Extra’) 3rd Guitar

(comes in at the 2nd verse, at 1.33 min.)

e|--------------------------------------------------------------------------|
B|--------------------------------------------------------------------------|
G|-10-10-10-10-10\5-5-/10-10-10-10-10\5-5/12-12-12-12-12\5/14/15\14--14-14--| (x2)
D|-x--x--x--x--x--x-x--x--x--x--x--x--x-x-x--x--x--x--x--x-x--x--x---x--x---|
A|-8--8--8--8--8-\3-3-/8--8--8--8--10\3-3/10-10-10-10-10\3/12/13\12--12-12--|
D|--------------------------------------------------------------------------|


DON’T FORGET TO RATE AND COMMENT THIS TAB!!


| /  slide up
| \  slide down
| h  hammer-on
| p  pull-off
| ~  vibrato
| +  harmonic
| x  Mute note
===============================================================================
Suggest correction
What's this?
You can suggest a correction to this tab. Community and Mods will review your correction and vote to approve or reject it.
comments
print report bad tab
5 comments total. Showing first comments.
+1 reply
ragingbull1 14 wrote on March 27 2009, 07:31 pm

Most accurate tab on the site, thanks!
5*

0 reply
gostarter 11 wrote on May 18 2009, 02:24 pm

Great work!thanks^^

0 reply
JulieM2535 88 wrote on November 1 2009, 01:19 pm

Agree with Gostarter and Ragingbull1, Keep up the good work!

guest
You may want to rate the tab now too:
select rating
Please do not post tabs as comments. Select "correction" instead!