Oops, an error
Loading. Please wait.
We have an official Crushcrushcrush tab made by UG professional guitarists. Check out the tab »
×
121,136 views 81 this week
11 commentsread comments
1 2 3 4 5
x 22
add to favorites
×
Save as Personal and add changes to this tab that will be seen only by you. Learn more ›
×
You can save this tab as Personal to edit and correct it or add notes. All changes will be seen only by you. Learn more »
launch autoscroll
font size
0
reset
how to read this tab
guitar tuner
edit
Autoscroll
slow
fast
+/-
esc
set tempo
stop
-----------------------------------------------------------------------------------------
                                  CRUSHCRUSHCRUSH - Paramore
-----------------------------------------------------------------------------------------

[Intro/Verse]
(I’ve got a lot to say to you..)

e|----------------|---------------|-----------------|-----------------|-----------------|
B|----------------|---------------|-----------------|-----------------|-----------------|
G|----------6-6-6-|---------------|-----------------|-----------------|-----------------|
D|----------7-7-7-|-7-7-7-7-7-7-7-|-----------------|-5-5-5-5-5-5-5-5-|-7-7-7-7-7-7-7-7-|
A|----------4-4-4-|-5-5-5-5-5-5-5-|-3-3-3-3-3-3-3-3-|-3-3-3-3-3-3-3-3-|-5-5-5-5-5-5-5-5-|
D|----------------|---------------|-3-3-3-3-3-3-3-3-|-----------------|-----------------|

e|-----------------|-----------------|-----------------|-----------------|
B|-----------------|-----------------|-----------------|-----------------|
G|-----------------|-----------------|-----------------|-----------------|
D|-7-7-7-7-7-7-7-7-|-----------------|-5-5-5-5-5-5-5-5-|-5-5-5-5-5-5-5-5-|
A|-5-5-5-5-5-5-5-5-|-3-3-3-3-3-3-3-3-|-3-3-3-3-3-3-3-3-|-3-3-3-3-3-3-3-3-|
D|-----------------|-3-3-3-3-3-3-3-3-|-----------------|-----------------|

[Pre-Chorus]
(They taped over your mouth…)

e|-1---------------|-3---------------|-5---------------|
B|-1---------------|-3---------------|-6---------------|
G|-3---------------|-5---------------|-7---------------|
D|-3---------------|-5---------------|-7---------------|
A|-1---------------|-3---------------|-5---------------|
D|-----------------|-----------------|-----------------|(x2)

e|-12-13-12------13|-12--------------|
B|----------13-----|-----------------|
G|-------------12--|-----------------|
D|-----------------|-----------------|
A|-----------------|-----------------|
D|-----------------|-----------------|

e|-----------------|-----------------|
B|-----------------|-----------------|
G|-7---------------|-7---------------|
D|-7---------------|-7---------------|
A|-0---------------|-0---------------|
D|-0---------------|-0---------------|

[Chorus]
(Nothing compares to..)

e|---------------0-|-----------------|-------------0---|
B|---------------5-|-----------------|-------------5---|
G|---------------5-|-----------------|-3-----------5---|
D|-0-0----3-3----5-|-----------------|-3----0-0----5---|
A|-0-0----3-3----3-|-----------------|-1----0-0----3---|
D|-0-0----3-3------|-----------------|------0-0--------|

e|---------------0-|-----------------|-----------------|-----------------|
B|---------------5-|-----------------|-----------------|-----------------|
G|---------------5-|-----------------|-3-3-3-3-3-3-3-3-|-5-5-5-5-5-5-5-5-|
D|-0-0----3-3----5-|-----------------|-3-3-3-3-3-3-3-3-|-5-5-5-5-5-5-5-5-|
A|-0-0----3-3----3-|-----------------|-1-1-1-1-1-1-1-1-|-3-3-3-3-3-3-3-3-|
D|-0-0----3-3------|-----------------|-----------------|-----------------|

[Post-Chorus]

e|-----------------|-----------------|-----------------|----------------|-----10--------|
B|-10-11-10--------|-----------------|----10-11-10-----|----------------|---------------|
G|----------12-10--|-9-10-9----------|-------------12--|-10--9-10-9-----|---------------|
D|-----------------|--------12-10-10-|-10--------------|------------12--|-10------------|
A|-----------------|-----------------|-----------------|----------------|---------------|
D|-----------------|-----------------|-----------------|----------------|---------------|

[Verse]
(Well if you wanna play it like a game..)

e|-----------------|-----------------|-----------------|-----------------|
B|-----------------|-----------------|-----------------|-----------------|
G|-----------------|-----------------|-----------------|-----------------|
D|-7-7-7-7-7-7-7-7-|-----------------|-5-5-5-5-5-5-5-5-|-7-7-7-7-7-7-7-7-|
A|-5-5-5-5-5-5-5-5-|-3-3-3-3-3-3-3-3-|-3-3-3-3-3-3-3-3-|-5-5-5-5-5-5-5-5-|
D|-----------------|-3-3-3-3-3-3-3-3-|-----------------|-----------------|

e|-----------------|-----------------|-----------------|-----------------|
B|-----------------|-----------------|-----------------|-----------------|
G|-----------------|-----------------|-----------------|-----------------|
D|-7-7-7-7-7-7-7-7-|-----------------|-5-5-5-5-5-5-5-5-|-5-5-5-5-5-5-5-5-|
A|-5-5-5-5-5-5-5-5-|-3-3-3-3-3-3-3-3-|-3-3-3-3-3-3-3-3-|-3-3-3-3-3-3-3-3-|
D|-----------------|-3-3-3-3-3-3-3-3-|-----------------|-----------------|

[Pre-Chorus]
(They taped over your mouth…)

e|-1---------------|-3---------------|-5---------------|
B|-1---------------|-3---------------|-6---------------|
G|-3---------------|-5---------------|-7---------------|
D|-3---------------|-5---------------|-7---------------| 
A|-1---------------|-3---------------|-5---------------|
D|-----------------|-----------------|-----------------|(x2)

e|-12-13-12------13|-12--------------|
B|----------13-----|-----------------|
G|-------------12--|-----------------|
D|-----------------|-----------------|
A|-----------------|-----------------|
D|-----------------|-----------------|

e|-----------------|-----------------|
B|-----------------|-----------------|
G|-7---------------|-7---------------|
D|-7---------------|-7---------------|
A|-0---------------|-0---------------|
D|-0---------------|-0---------------|

[Chorus]
(Nothing compares to..)

e|-----------------|-----------------|-----------------|
B|-----------------|-----------------|-----------------|
G|---------------5-|-----------------|-3-----------5---|
D|-0-0----3-3----5-|-----------------|-3----0-0----5---|
A|-0-0----3-3----3-|-----------------|-1----0-0----3---|
D|-0-0----3-3------|-----------------|------0-0--------|

e|-----------------|-----------------|-----------------|-----------------|
B|-----------------|-----------------|-----------------|-----------------|
G|---------------5-|-----------------|-3-3-3-3-3-3-3-3-|-5-5-5-5-5-5-5-5-|
D|-0-0----3-3----5-|-----------------|-3-3-3-3-3-3-3-3-|-5-5-5-5-5-5-5-5-|
A|-0-0----3-3----3-|-----------------|-1-1-1-1-1-1-1-1-|-3-3-3-3-3-3-3-3-|
D|-0-0----3-3------|-----------------|-----------------|-----------------|
[Bridge]
(Rock and roll..)

e|-----------------|-----------------|
B|-----------------|-----------------|
G|-----------5-----|-----------------|
D|-0----3----5-----|--------8-8-\----| 
A|-0----3----3-----|--------8-8-\----|
D|-0----3----------|--------8-8-\----|(x8)

[Final Chorus]
(Nothing compares to..)

e|-----------------|-----------------|-----------------|-----------------|
B|-----------------|-----------------|-----------------|-----------------|
G|-------------5-5-|-5-5-5-5-5-5-5-5-|-3-3-3-------5-5-|-5-5-5-5-6-6-6-6-|
D|-0-0-0-3-3-3-5-5-|-3-3-3-3-3-3-3-3-|-3-3-3-0-0-0-5-5-|-5-5-5-5-7-7-7-7-|
A|-0-0-0-3-3-3-3-3-|-3-3-3-3-3-3-3-3-|-1-1-1-0-0-0-3-3-|-3-3-3-3-4-4-4-4-|
D|-0-0-0-3-3-3-----|-----------------|-------0-0-0-----|-----------------|

e|-----------------|-----------------|-----------------|-----------------|
B|-----------------|-----------------|-----------------|-----------------|
G|---------------5-|-----------------|-3-3-3-3-3-3-3-3-|-5-5-5-5-5-5-5-5-|
D|-0-0----3-3----5-|-----------------|-3-3-3-3-3-3-3-3-|-5-5-5-5-5-5-5-5-|
A|-0-0----3-3----3-|-----------------|-1-1-1-1-1-1-1-1-|-3-3-3-3-3-3-3-3-|
D|-0-0----3-3------|-----------------|-----------------|-----------------|

e|-----------------|-----------------|-------------0---|
B|-----------------|-----------------|-------------5---|
G|---------------5-|-----------------|-3-----------5---|
D|-0-0----3-3----5-|-----------------|-3----0-0----5---|
A|-0-0----3-3----3-|-----------------|-1----0-0----3---|
D|-0-0----3-3------|-----------------|------0-0--------|

e|-----------------|-----------------|-----------------|-----------------|
B|-----------------|-----------------|-----------------|-----------------|
G|---------------5-|-----------------|-3-3-3-3-3-3-3-3-|-5-5-5-5-5-5-5-5-|
D|-0-0----3-3----5-|-----------------|-3-3-3-3-3-3-3-3-|-5-5-5-5-5-5-5-5-|
A|-0-0----3-3----3-|-----------------|-1-1-1-1-1-1-1-1-|-3-3-3-3-3-3-3-3-|
D|-0-0----3-3------|-----------------|-----------------|-----------------|

e|-12b---12-12b-12-|10-12b-12-10-10--|-13----------10--|----13-12-13-15--|
B|-----------------|-----------------|----10-11-10-----|-13--------------|
G|-----------------|-----------------|-----------------|-----------------|
D|-----------------|-----------------|-----------------|-----------------|
A|-----------------|-----------------|-----------------|-----------------|
D|-----------------|-----------------|-----------------|-----------------|

e|-13-15-17-18-17--|-18-22\----------|
B|-----------------|-----------------|
G|-----------------|-----------------|
D|-----------------|-----------------|
A|-----------------|-----------------|
D|-----------------|-----------------|



************************************

| \  Slide down
| b  Bend

************************************
Suggest correction
Creating personal tab
Creating personal tab
You can edit any tab online and save it as your Personal.

You can edit, replace or remove any tab part or add personal notes – all changes will be seen only by you.

Personal tabs can be accessed anytime from any device, even offline.
Learn more »
comments
print report bad tab
11 comments total. Showing first comments.
+6 reply
Bob_Smith 348 Nov 22, 2008 05:07 PM

have no idea what these people are on about - except that thejamspot is right about it being half a step higher. everything else is 99.9% correct. the tuning for this song is drop Db - the heavy open chords right before the chorus are Db powerchord variations. fix up the tuning and you have yourself a 5* tab. regardless, this is the best tab on the site - not including the guitar pro ones though

+2 reply
hardrockmusicX 10 Dec 12, 2008 11:13 AM

Man, this is the best version I have ever seen of this tab.
Excellent 10/10 :D

+4 reply
dellhide 10 Jan 18, 2009 05:25 AM

yup, this version is great.
just tune guitar back to C# and its perfect!

guest
You may want to rate the tab now too:
select rating
Wanna post a correction for this tab? Suggest correction