Oops, an error
Loading. Please wait.
31 views 1 this week
no commentswrite comment
1 2 3 4 5
2 more votes to show rating
add to favorites
×
Save as Personal and add changes to this tab that will be seen only by you. Learn more ›
×
You can save this tab as Personal to edit and correct it or add notes. All changes will be seen only by you. Learn more »
launch autoscroll
font size
0
reset
how to read this tab
guitar tuner
backing track
0:00
0:00
edit
Autoscroll
slow
fast
+/-
esc
set tempo
stop
[Intro]
e|-------------------9----------------------9-----|----------------13----------------11-|
B|-11----11----11---------11----11----11----------|-11-9-11-9-11-9----9-11-9-11-9-11----|
G|----10----10----10---10----10----10----10---10--|-------------------------------------|
D|------------------------------------------------|-------------------------------------|
A|------------------------------------------------|-------------------------------------|
E|------------------------------------------------|-------------------------------------|

[Verse 1]
e|-------------------9----------------------9-----|----------------13----------------11-|
B|-11----11----11---------11----11----11----------|-11-9-11-9-11-9----9-11-9-11-9-11----|
G|----10----10----10---10----10----10----10---10--|-------------------------------------|
D|------------------------------------------------|-------------------------------------|
A|------------------------------------------------|-------------------------------------|
E|------------------------------------------------|-------------------------------------|

e|-------------------9----------------------9-----|----------------13----------------11-|
B|-11----11----11---------11----11----11----------|-11-9-11-9-11-9----9-11-9-11-9-11----|
G|----10----10----10---10----10----10----10---10--|-------------------------------------|
D|------------------------------------------------|-------------------------------------|
A|------------------------------------------------|-------------------------------------|
E|------------------------------------------------|-------------------------------------|

[Chorus]
e|--------------------------|
B|--------------------------|
G|--------------------------|
D|-4--1--8--3-3-3-3-3-3-3-3-|
A|-4--1--8--3-3-3-3-3-3-3-3-|
E|-4--1--8--3-3-3-3-3-3-3-3-|

e|-------------------------|-------------------------|-------------------------|------------------------|
B|-------------------------|-------------------------|-------------------------|------------------------|
G|-------------------------|-------------------------|-------------------------|------------------------|
D|-4-4-4-4-4--4-4-4-4-4-4--|-1-1-1-1-1--1-1-1-1-1-1--|-8-8-8-8-8--8-8-8-8-8-8--|-3-3-3-3-3--3-3-3-3-3-3-|
A|-4-4-4-4-4--4-4-4-4-4-4--|-1-1-1-1-1--1-1-1-1-1-1--|-8-8-8-8-8--8-8-8-8-8-8--|-3-3-3-3-3--3-3-3-3-3-3-|
E|-4-4-4-4-4--4-4-4-4-4-4--|-1-1-1-1-1--1-1-1-1-1-1--|-8-8-8-8-8--8-8-8-8-8-8--|-3-3-3-3-3--3-3-3-3-3-3-|

e|-------------------------|-------------------------|-------------------------|------------------------|
B|-------------------------|-------------------------|-------------------------|------------------------|
G|-------------------------|-------------------------|-------------------------|------------------------|
D|-4-4-4-4-4--4-4-4-4-4-4--|-1-1-1-1-1--1-1-1-1-1-1--|-8-8-8-8-8--8-8-8-8-8-8--|-3-3-3-3-3--3-3-3-3-3-3-|
A|-4-4-4-4-4--4-4-4-4-4-4--|-1-1-1-1-1--1-1-1-1-1-1--|-8-8-8-8-8--8-8-8-8-8-8--|-3-3-3-3-3--3-3-3-3-3-3-|
E|-4-4-4-4-4--4-4-4-4-4-4--|-1-1-1-1-1--1-1-1-1-1-1--|-8-8-8-8-8--8-8-8-8-8-8--|-3-3-3-3-3--3-3-3-3-3-3-|

[Post-Chorus]
e|-------------------|--------------------|
B|-11----11----11----|-11----9----9----9~-|
G|----10----10----10-|---10---10---10-----|
D|-------------------|--------------------|
A|-------------------|--------------------|
E|-------------------|--------------------|

[Verse 2]
e|-------------------9----------------------9-----|----------------13----------------11-|
B|-11----11----11---------11----11----11----------|-11-9-11-9-11-9----9-11-9-11-9-11----|
G|----10----10----10---10----10----10----10---10--|-------------------------------------|
D|------------------------------------------------|-------------------------------------|
A|------------------------------------------------|-------------------------------------|
E|------------------------------------------------|-------------------------------------|

e|-------------------9----------------------9-----|----------------13----------------11-|
B|-11----11----11---------11----11----11----------|-11-9-11-9-11-9----9-11-9-11-9-11----|
G|----10----10----10---10----10----10----10---10--|-------------------------------------|
D|------------------------------------------------|-------------------------------------|
A|------------------------------------------------|-------------------------------------|
E|------------------------------------------------|-------------------------------------|

[Chorus]
e|--------------------------|
B|--------------------------|
G|--------------------------|
D|-4--1--8--3-3-3-3-3-3-3-3-|
A|-4--1--8--3-3-3-3-3-3-3-3-|
E|-4--1--8--3-3-3-3-3-3-3-3-|

e|-------------------------|-------------------------|-------------------------|------------------------|
B|-------------------------|-------------------------|-------------------------|------------------------|
G|-------------------------|-------------------------|-------------------------|------------------------|
D|-4-4-4-4-4--4-4-4-4-4-4--|-1-1-1-1-1--1-1-1-1-1-1--|-8-8-8-8-8--8-8-8-8-8-8--|-3-3-3-3-3--3-3-3-3-3-3-|
A|-4-4-4-4-4--4-4-4-4-4-4--|-1-1-1-1-1--1-1-1-1-1-1--|-8-8-8-8-8--8-8-8-8-8-8--|-3-3-3-3-3--3-3-3-3-3-3-|
E|-4-4-4-4-4--4-4-4-4-4-4--|-1-1-1-1-1--1-1-1-1-1-1--|-8-8-8-8-8--8-8-8-8-8-8--|-3-3-3-3-3--3-3-3-3-3-3-|

e|-------------------------|-------------------------|-------------------------|------------------------|
B|-------------------------|-------------------------|-------------------------|------------------------|
G|-------------------------|-------------------------|-------------------------|------------------------|
D|-4-4-4-4-4--4-4-4-4-4-4--|-1-1-1-1-1--1-1-1-1-1-1--|-8-8-8-8-8--8-8-8-8-8-8--|-3-3-3-3-3--3-3-3-3-3-3-|
A|-4-4-4-4-4--4-4-4-4-4-4--|-1-1-1-1-1--1-1-1-1-1-1--|-8-8-8-8-8--8-8-8-8-8-8--|-3-3-3-3-3--3-3-3-3-3-3-|
E|-4-4-4-4-4--4-4-4-4-4-4--|-1-1-1-1-1--1-1-1-1-1-1--|-8-8-8-8-8--8-8-8-8-8-8--|-3-3-3-3-3--3-3-3-3-3-3-|

[Solo]
e|--------------------------------13-----|----------------------------13----|------------------------------|
B|-13b14-13--11--13b14-13--11--11----11--|-13b14-13-11-13b14-13-11-11----11-|-13b14-13-11-11-9-9-9-9-------|
G|---------------------------------------|----------------------------------|------------------------5-6-8-|
D|---------------------------------------|----------------------------------|------------------------------|
A|---------------------------------------|----------------------------------|------------------------------|
E|---------------------------------------|----------------------------------|------------------------------|

e|-------------------------------13----|-------------------------------13-----|----------------------------|
B|-13b14-13--11--13b14-13-11--11----11-|-13b14-13--11--13b14-13-11--11----11--|-13-13-13-14-14-14-14-14-14-|
G|-------------------------------------|--------------------------------------|----------------------------|
D|-------------------------------------|--------------------------------------|----------------------------|
A|-------------------------------------|--------------------------------------|----------------------------|
E|-------------------------------------|--------------------------------------|----------------------------|

[Bridge]
e|------------------------|
B|------------------------|
G|------------------------|
D|-4--1--8--3--4--1--8--3-|
A|-4--1--8--3--4--1--8--3-|
E|-4--1--8--3--4--1--8--3-|

[Outro]
e|-------------------9-9----------------------9-9-----|----------------13-13---11---11---11-|
B|-11----11----11-----------11----11----11------------|-11-9-11-9-11-9-------9----9----9----|
G|----10----10----10-----10----10----10----10-----10--|-------------------------------------|
D|----------------------------------------------------|-------------------------------------|
A|----------------------------------------------------|-------------------------------------|
E|----------------------------------------------------|-------------------------------------|

e|-------------------9-9----------------------9-9-----|----------------13-13---11~-|
B|-11----11----11-----------11----11----11------------|-11-9-11-9-11-9-------9-----|
G|----10----10----10-----10----10----10----10-----10--|----------------------------|
D|----------------------------------------------------|----------------------------|
A|----------------------------------------------------|----------------------------|
E|----------------------------------------------------|----------------------------|

e|-------------------|-------------------|-------------------------|
B|-------------------|-------------------|-------------------------|
G|-------------------|-------------------|-------------------------|
D|-------------------|-------------------|-------------------------|
A|-4-6-1-8-3-4/8-3/6-|-4-6-1-8-3-4/8-3/6-|-4-6-1-8-3-4/8-3/6-1-1-1-|
E|-4-6-1-8-3-4/8-3/6-|-4-6-1-8-3-4/8-3/6-|-4-6-1-8-3-4/8-3/6-1-1-1-|


************************************

| x   Dead note
| g   Grace note
| (n) Ghost note
| h   Hammer-on
| p   Pull-off
| r   Release
| >   Accented note
| t   Tapping
| b   Bend
| br  Bend release
| pb  Pre-bend
| pbr Pre-bend release
| /   Slide up
| \   Slide down
| ~   Vibrato
| s   Slap
| P   Pop
| PM  Palm mute
| TR  Trill
| N   Tremolo

************************************

            
            
Suggest correction
Creating personal tab
Creating personal tab
You can edit any tab online and save it as your Personal.

You can edit, replace or remove any tab part or add personal notes – all changes will be seen only by you.

Personal tabs can be accessed anytime from any device, even offline.
Learn more »
Give kudos to tab author, rate the tab!
1 2 3 4 5
comments
print report bad tab
guest
You may want to rate the tab now too:
select rating
Wanna post a correction for this tab? Suggest correction