Oops, an error
Loading. Please wait.

Decode Tab

version 4
version 4
20,015 views 1 this week
no commentswrite comment
1 2 3 4 5
please rate
add to favorites
launch autoscroll
font size
0
reset
how to read this tab
guitar tuner
Autoscroll
slow
fast
+/-
esc
set tempo
stop
Help us to improve Ultimate-Guitar.com Take our survey!
×
Contributor
P_A_R_A_M_O_R_E

D_E_C_O_D_E


Drop D

$ L_e_a_d  G_u_i_t_a_r ONLY$

|-------------------------9----------|
|-11------11------11-----------------|
|-----10------10------10------10-----|
|------------------------------------| (x2)
|------------------------------------|
|------------------------------------|

|-------------------------13---|
|-11------11------11-----------|
|-----13------13------13-------|
|------------------------------|
|------------------------------|
|------------------------------|

|---------------------11--|
|-11------11------11------|
|-----13------13----13----|
|-------------------------|
|-------------------------|
|-------------------------|

V_e_r_s_e 1 Play 3 times

|---------------9----|
|-11---11---11-------|
|---10---10---10--10-|
|--------------------| (x2)
|--------------------|
|--------------------|

|---------------13---|
|-11---11---11-------|
|---13---13---13--13-|
|--------------------|
|--------------------|
|--------------------|

|--------------11--|
|-11---11---11-----|
|---13---13--13----|
|------------------|
|------------------|
|------------------|
|------------------|

But on the third time the last part is like this:
|---------------13--11~-|
|-11---11---11----------|
|---13---13---13--13----|
|-----------------------|
|-----------------------|
|-----------------------|

C_h_o_r_u_s: This kinda looks like the verse
Play this twice
|---------------9~9---|
|-11---11---11--------|
|---10---10---10---10-|
|---------------------| (x2)
|---------------------|
|---------------------|

|---------------13-13--11~-|
|-11---11---11-------------|
|---13---13---13-----13----|
|--------------------------|
|--------------------------|
|--------------------------|

~P_r_e  V_e_r_s_e~:

|-----------------------------------|
|-11------11------11------11--------|
|-----10------10------10------10----|
|-----------------------------------|
|-----------------------------------|
|-----------------------------------|

|------------------------------|
|-9-------9------9-------------|
|----8--------8-------8--------|
|--10--10--10--10--10--10------|
|------------------------------|
|------------------------------|
PM                         .

~V_e_r_s_e~ 2:
Play this 3 times
|---------------9----|
|-11---11---11-------|
|---10---10---10--10-|
|--------------------| (x2)
|--------------------|
|--------------------|

|---------------13---|
|-11---11---11-------|
|---13---13---13--13-|
|--------------------|
|--------------------|
|--------------------|

|--------------11--|
|-11---11---11-----|
|---13---13--13----|
|------------------|
|------------------|
|------------------|
|------------------|

But on the third time the last part is like this
|---------------13--11~-|
|-11---11---11----------|
|---13---13---13--13----|
|-----------------------|
|-----------------------|
|-----------------------|


Chorus: This kinda looks like the verse
Play this twice
|---------------9~9---|
|-11---11---11--------|
|---10---10---10---10-|
|---------------------| (x2)
|---------------------|
|---------------------|

|---------------13-13--11~-|
|-11---11---11-------------|
|---13---13---13-----13----|
|--------------------------|
|--------------------------|
|--------------------------|


-Solo:
|-----------------------------13----|
|-13h14h13-11~-13h14h13-11~----11---|
|-----------------------------------|
|-----------------------------------|
|-----------------------------------| (X2)
|-----------------------------------|
|-----------------------------------|

|--------------------------|
|-13h14h13-11-11-9---------|
|-------------------5-6-8~-|
|--------------------------|
|--------------------------|
|--------------------------|
|--------------------------|

|-----------------------------13----|
|-13h14h13-11~-13h14h13-11~----11---|
|-----------------------------------|
|-----------------------------------|
|-----------------------------------| (X2)
|-----------------------------------|
|-----------------------------------|

|--------16/18--------|
|-13-14~-------14-13~-|
|---------------------|
|---------------------|
|---------------------|
|---------------------|
|---------------------|

------------------------------------
{Im sorry but I don't know the bridge}
------------------------------------
-Repeat Chorus 3 times-

-Outro:
Play this four times
|---------13---|
|-14-13-11--11-|
|--------------|
|--------------|
|--------------|
|--------------|
|--------------|

|----------|
|-14-16----|
|-------13-|
|----------|
|----------|
|----------|
|----------|

Then
|----------------|
|-14-14-14~--p13-|
|----------------|
|----------------|
|----------------|
|----------------|
|----------------|
comments
We did not receive enough feedback on this tab! Please rate:
print report bad tab
1 2 3 4 5
I want to post or [tab]
guest
You may want to rate the tab now too:
select rating
Please do not post tabs as comments. Select "correction" instead!