Oops, an error
Loading. Please wait.

Decode Tab

version 5
version 5
19,021 views 51 this week
1 commentread comment
1 2 3 4 5
accurate
x 6
add to favorites
launch autoscroll
font size
0
reset
how to read this tab
guitar tuner
Autoscroll
slow
fast
+/-
esc
set tempo
stop
Help us to improve Ultimate-Guitar.com Take our survey!
×
Difficulty
Tuning
intermediate
D A D G B E
                                               Decode by Paramore
Tabbed by an Anonymous
Email Add:dying1nsyd_21@yahoo.com

Drop D Tuning

There are probably some mistakes in this tab but i give my best to complete this please 
it.I'll hope you'll like it.


Guitar 1(Intro)
e|---------------------9----|
B|---11----11----11---------|
G|------10----10----10---10-| x2
D|--------------------------|
A|--------------------------|
E|--------------------------|

e|--------------------13---------------------11--|
B|--11----11----11-----------11----11----11------|
G|-----13----13----13-----13----13----13---------|
D|-----------------------------------------------|
A|-----------------------------------------------|
E|-----------------------------------------------| 4 times til mag chorus..

Guitar 2
e|--------------------------------------------------------------|
B|--------------------------------------------------------------|
G|-------------------------------3333333333333333---------------|
D|-44444444444444-11111111111111-3333333333333333-33333333333333|
A|-44444444444444-11111111111111-1111111111111111-33333333333333|
D|-44444444444444-11111111111111------------------33333333333333|
   xxxxxxxxxxxxxx xxxxxxxxxxxxxx xxxxxxxxxxxxxxxx xxxxxxxxxxxxxx|  2 times bago mag chorus...

Guitar 2(Refrain)
e|---------------------------------------------------------------------|
B|---------------------------------------------------------------------|
G|------------------------------------3~-------------------------------|
D|-4~---------------1~----------------3~----------------333333333333333|
A|-4~---------------1~----------------1~----------------333333333333333|
D|-4~---------------1~----------------------------------333333333333333|
                                                        xxxxxxxx

Guitar 1(Chorus 1)
e|---------------------999----|
B|---11----11----11-----------|
G|------10----10----10---10---| x2
D|----------------------------|
A|----------------------------| pareho lang to nung sa verse dadagdagan mo
E|----------------------------| lang ng konti

e|--------------------1313---------------------1111--|
B|--11----11----11-----------11----11----11----------|
G|-----13----13----13-----13----13----13-------------|
D|---------------------------------------------------|
A|---------------------------------------------------| 2 times
E|---------------------------------------------------|

Guitar 2(Chorus)
e|--------------------------------------------------------------------|
B|--------------------------------------------------------------------|
G|-----------------------------------3-3-3-3-3-3-3-3------------------|
D|-4-4-4-4-4-4-4-4—-1-1-1-1-1-1-1-1—-3-3-3-3-3-3-3-3—-3-3-3-3-3-3-3-3-|
A|-4-4-4-4-4-4-4-4—-1-1-1-1-1-1-1-1—-1-1-1-1-1-1-1-1--3-3-3-3-3-3-3-3-|
D|-4-4-4-4-4-4-4-4—-1-1-1-1-1-1-1-1—----------------—-3-3-3-3-3-3-3-3-|
2 times through chorus

Guitar 1(Pre-Verse)
e|---------------------------------------------------------------|
B|-11---11----11---11----9--9--9---------------------------------|
G|----10---10---10----10---8--8--8~------------------------------|
D|---------------------------------------------------------------|
A|---------------------------------------------------------------|
D|---------------------------------------------------------------|

Guitar 2(Pre-Verse)
e|-----------------------------------------------------------|
B|-----------------------------------------------------------|
G|-----------------------------------------------------------|
D|---8~-------------6~----66---------------------------------|
A|---8~-------------6~----66---------------------------------|
D|---8~-------------6~----66---------------------------------|

Guitar 1(Solo)Chorus and Verse
e|----------------------------13-------------------------------13-----|
B|--13h14p13-11--13h14p13-11-----11--13h14p13-11--13h14p13-11-----11--|
G|--------------------------------------------------------------------|
D|--------------------------------------------------------------------|
A|--------------------------------------------------------------------|
D|--------------------------------------------------------------------|

e|-----------------------------------------------------------------|
B|-13h14p13-11-11-9-9----------------------------------------------|
G|------------------------5-6—8~-----------------------------------|
D|-----------------------------------------------------------------|
A|-----------------------------------------------------------------|
D|-----------------------------------------------------------------|

e|----------------------------13-------------------------------13-----|
B|--13h14p13-11--13h14p13-11-----11--13h14p13-11--13h14p13-11-----11--|
G|--------------------------------------------------------------------|
D|--------------------------------------------------------------------|
A|--------------------------------------------------------------------|
D|--------------------------------------------------------------------|

e|---------------------16--18---------------------------------------|
B|-13---13/14--14-14----------14---13~------------------------------|
G|------------------------------------------------------------------|
D|------------------------------------------------------------------|
A|------------------------------------------------------------------|
D|------------------------------------------------------------------|

Guitar 2(After Solo)
e|-------------------------------------------------------------------|
B|-------------------------------------------------------------------|
G|-----------------------------------3-------------------------------|
D|-4----------------1----------------3----------------3--------------| 2
A|-4----------------1----------------1----------------3--------------| times
D|-4----------------1---------------------------------3--------------|

Guitar 1(Bridge)
e|-10------------9--------------13----------------11-|
B|-11------------11-------------11----------------11-|
G|-10------------10-------------13----------------13-| 2 times
D|---------------------------------------------------|
A|---------------------------------------------------|
D|---------------------------------------------------|

Play chorus twice

Guitar 1(Outro)
e|------------13----------------------------13------------------------|
B|-14-13--11----11---14---16-----14-13--11----11---14---16------------|
G|---------------------------13~---------------------------13~--------|
D|--------------------------------------------------------------------|
A|--------------------------------------------------------------------|
D|--------------------------------------------------------------------|

e|------------13----------------------------13------------------------|
B|-14-13--11----11---14---16-----14-13--11----11---14---16------------|
G|---------------------------13~---------------------------13~--------|
D|--------------------------------------------------------------------|
A|--------------------------------------------------------------------|
D|--------------------------------------------------------------------|

e|--------------------------------------------------------------------|
B|-14-14-14~----p13---------------------------------------------------|
G|--------------------------------------------------------------------|
D|--------------------------------------------------------------------|
A|--------------------------------------------------------------------|
D|--------------------------------------------------------------------|

Guitar 2: Outro
e|----------------------------------------------------------------------|
B|----------------------------------------------------------------------|
G|-------------3--------3-----------------------3---------3-------------|
D|-4---6---1---3-3--4---3---3---6---4---6---1---3--3--4---3---3---1-1-1~|
A|-4---6---1---1-3--4---1---3---6---4---6---1---1--3--4---1---3---1-1-1~|
D|-4---6---1-----3--4-------3---6---4---6---1------3--4-------3---1-1-1~|

Legend:x-palm mute
       ~-vibrato
       h-hammer on
       p-pull off
       /-slide up
Suggest correction
comments
print report bad tab
1 comment total.
0 reply
Hyper2980 10 wrote on October 23 2009, 06:50 pm

GREAT tab one of the best for this song well done

guest
You may want to rate the tab now too:
select rating
Wanna post a correction for this tab? Suggest correction