Oops, an error
Loading. Please wait.

Decoy Bass Tab

version 1
version 1

Whole song

Interactive

9,195 views 9 this week
1 commentread comment
1 2 3 4 5
x 3
add to favorites
launch autoscroll
font size
0
reset
guitar tuner
Autoscroll
slow
fast
+/-
esc
set tempo
stop
Help us to improve Ultimate-Guitar.com Take our survey!
×
Author
Tuning:DADGBe
Song:Decoy
Artist:Paramore

This isn't my first tab but it is the first bass tab I've written so yea...

Considering i did this on a guitar, its not 100% perfect hence why i couldn't 
bother with the bridge so enjoy.


Intro: Bass enters when drums start

G|------------------------------------------------------------|\
D|------------------------------------------------------------| \(2x)
A|------------------------------------------------------------| /
E|-----5----8-8---/15-15-----3-3--5-5--3-3--------------------|/

Verse:
G|-------------------------------------------------------------|\
D|-------------------------------------------------------------| \(4x)
A|-------------------------------------------------------------| /
E|-----5~---8~----------3~---5~---1~---------------------------|/


Pre-chorus:

G|----------------------------------------------------------------|
D|----------------------------------------------------------------|
A|----------------------------------------------------------------|
E|-----5~---8~----------3~---5~---1~~~~~--------------------------|

Chorus:

G|----------------------------------------------------------------|
D|----------------------------------------------------------------|
A|------------------------------1--3--1---------------------------|
E|-----5(x16)--1(x8)--3-3-3-3-3----------5(x16)----1(x8)---3(x8)--|


Repeat Intro
Repeat Verse
Repeat Chorus


Bridge:
Still working on it

Outro:

G|----------------------------------------------------------------------|
D|----------------------------------------------------------------------|
A|----------------------------------------------------------------------|
E|--------5~------------5~------------------////15\\\-------------------|
                                     (this means slide up to 15 then down)


G|-----------------------------------------------------------------|\
D|-----------------------------------------------------------------| \(4x)
A|-----------------------------------------------------------------| /
E|-----5----8-8---/15-15-----3-3--5-5--3-3~~~~~--------------------|/






Suggest correction
Give kudos to tab author, rate the tab!
1 2 3 4 5
comments
print report bad tab
1 comment total.
+1 reply
Josh_Dom9391 30 Feb 23, 2009 05:01 PM

Not in drop D matey! Just need to drop to E-flat and try again cos most of your notes are wrong, Ive tabbed it myself, should be up in a few days!

guest
You may want to rate the tab now too:
select rating
Wanna post a correction for this tab? Suggest correction