Oops, an error
Loading. Please wait.

Decoy tab

version 4
version 4

Whole song

Interactive

15,648 views 6 this week
1 commentread comment
1 2 3 4 5
x 10
add to favorites
×
Save as Personal and add changes to this tab that will be seen only by you. Learn more ›
×
You can save this tab as Personal to edit and correct it or add notes. All changes will be seen only by you. Learn more »
launch autoscroll
font size
0
reset
how to read this tab
guitar tuner
edit
Autoscroll
slow
fast
+/-
esc
set tempo
stop
Artist: Paramore
Song: Decoy
Album: The Final Riot

Intro x4

e|-----------------------------------------------| 
B|-----------------------------------------------|
G|---------10-10---------------------------------|
D|--5--8-8-10-10---3-3-5-5-10-10-----------------| 
A|--5--8-8-8--8----3-3-5-5-10-10-----------------|
D|--5--8-8---------3-3-5-5-8--8------------------|

UPDATED! 19/07/10
I've decided to tab the rhythm for the intro for you guys!
Enjoy

Rhythm Intro x2 (starts after 2 of the lead intro)

e|-----------------------------------------------| 
B|-----------------------------------------------|
G|-----------------------------------------------|
D|--5--8-8-3-3-3-3-5-5-1-1-----------------------| 
A|--5--8-8-3-3-3-3-5-5-1-1-----------------------|
D|--5--8-8-3-3-3-3-5-5-1-1-----------------------|

Verse x4

e|--------10-----10--------8----8----------------|
B|-----------------------------------------------|
G|-----10----10---------10---10------------------|
D|--12---------------12--------------------------|
A|-----------------------------------------------|
D|-----------------------------------------------|

Pre-chorus x1

e|-----------------------------------------------|
B|-----------------------------------------------|
G|-----------------------------------------------|
D|-12-10-15-13-12-8-5------------randomly strum--| (This is the vocal line
A|-------------------------------muted strings---|  Hayley uses, it sounds
D|-----------------------------------------------|  good to play)

Chorus 

e|-----------------------------------------------|
B|-----------------------------------------------|
G|-----------------------------------------------|
D|--5--------1------3----------------------------|
A|--5--x16---1--x8--3--x8------------------------|
D|--5--------1------3----------------------------|

Intro 

Verse

Pre-chorus

Chorus

Bridge x3

e|---10----10----10------------------------------|
B|-----------------------------------------------|
G|------10---10----10------x2--------------------|
D|-------12---12---------------------------------| 
A|-----------------------------------------------|
D|-----------------------------------------------|

e|-----------------------------------------------|
B|------11----11-----11-10-----------------------|
G|----10--10----10--------10---------------------|
D|--12------12--------------10-------------------|
A|-----------------------------------------------|
D|-----------------------------------------------|

Chorus


END


im pretty sure this is all correct,

Thanks (:

            
            
Suggest correction
Creating personal tab
Creating personal tab
You can edit any tab online and save it as your Personal.

You can edit, replace or remove any tab part or add personal notes – all changes will be seen only by you.

Personal tabs can be accessed anytime from any device, even offline.
Learn more »
comments
print report bad tab
1 comment total.
0 reply
CameronQuinn 87 Jul 02, 2010 07:25 PM

In the last chorus, its not the chorus chords that are played its the Intro riff,

guest
You may want to rate the tab now too:
select rating
Wanna post a correction for this tab? Suggest correction